» » »

Rage Against The Machine, New Millennium Homes Tabs (ver.3)

Artists:  A B C D E F G H I J K L M N O P Q R S T U V W X Y Z # 

New Millennium Homes Tabs (ver.3)

Rage Against The Machine Tabs
Rating:
0/5 (0 votes)
New Millennium Homes lessons Tabs too difficult? Try these video lessons and learn fast
                Tuning: Standard (E A D G B E)

this is a great song.  Easy to play too.


   Intro And Chorus                   end part
E|---------------------------------||-------------------------------||
B|---------------------------------||-------------------------------||
G|---------------------------------||-------------------------------||
D|---------------------------------||----/5------7------------------||
A|-----5------------5h7------------||---------7---------------------||
E|--0----5\---0-0------------------||-0-------------0---3h5---0-----||


 Verse with wah as filter (pushed forward)
E|---------------------------------||
B|---------------------------------||
G|---------------------------------||
D|---------------------------------||
A|---------------------------------||
E|--0--0---0---0-0----0----0-0-----||



E|-----------------------0---------||
B|-----------------------3---------||
G|---------------------------------||
D|--------2-2-2--------------------||
A|---------------------------------||
E|-0-0-0---------0-0-0-------------||

I have no idea how to play the solo. other than that, this should be correct. Have a nice day!   :-)
            
Submit corrections

comments powered by Disqus
↑ Back to top | Rage Against The Machine Tabs for New Millennium Homes. Lyrics for acoustic guitar and electric guitar. Tablatures and chords are parodies/interpretations of the original songs. You may use it for private study, scholarship, research or language learning purposes only