» » »

New Millennium Homes Tabs (ver.2)

Artists:  A B C D E F G H I J K L M N O P Q R S T U V W X Y Z # 

New Millennium Homes Tabs (ver.2)

Rage Against The Machine
Rating:
0/5 (0 votes)

Hard to play? Try these video lessons and learn fast.
                h= Hammer on

e--------------------------------------
B--------------------------------------
G-------------------------------------
D------------------------------------
A---------5--------------------------
E---0-----------5-------------------


e--------------------------------------------
B------------------------------------------
G-------------------------------------------
D---------------------------------
A-------------5h7----------5------------
E----0--0------------0----------5--------

e----------------------------------------------------------------------------------
B--------------------------------------------------------------------------------
G----------------------------------------------------------------------------------
D-----------------------------5------------7-------------------------------------
A-------------5h7------------------7------------------5h7----------------------
E--0---0---------------0-------------------------0---------------0---------------
            
Hard to play? Try these video lessons and learn fast. | Correct




comments powered by Disqus
↑ Back to top | Tablatures and chords are parodies/interpretations of the original songs. You may use it for private study, scholarship, research or language learning purposes only