» » »

Microphone Fiend Bass tabs (ver.4)

Artists:  A B C D E F G H I J K L M N O P Q R S T U V W X Y Z # 

Microphone Fiend Bass tabs (ver.4)

Rage Against The Machine
Rating:
0/5 (0 votes)

Tabs too difficult? Try these video lessons and learn fast.
                Artist Rage Against the Machine
Tuning: drop D tuning DADG
bassist: Tim Commerford
Original Artist: Eric B & Rakim

Verse                                      X8(w/ distortion)
G|--------------||--------------------------|
D|--(guitar)----||*------------------------*|
A|--------------||*------------------------*|
D|--------------||--4b/-4b/--7b-4--2-b/-4b/-|

Bridge                         Chorus                   X4(w/ distortion)
G-----------------------------|--------------------------|
D-----------------------------|*---------------2-4------*|
A---------0----0----0-0-0-0---|*-------------4----------*|
D-----------------------------|-4\\----XX24-0-------2-4-2-|

Verse and Chorus

Post-Chorus chorus                        X4(w/ distortion)        
G|-----------------------------------|
D|*------------------------2-4------*|
A|*------0-------0-------0----------*|
D|--24-0----24-0----24-0-------2-4-2-|

rest 2 bars

Main riff             X2(w/o distortion) 
G----------------------|
D---------------------*|
A---------------------*|
D---4b--XX-2-3-4-XXXX--|

Main riff X4(w/ distortion)

rest 8 bars

Interlude      X8(w/ distortion) fade in        
G|--------------|
D|--------------|
A|--------------|
D|--4b-4b-4b-4b-|

Main riff X8(w/ distortion)

Chorus

Post-Chorus

END
            
Tabs too difficult? Try these video lessons and learn fast.




comments powered by Disqus
↑ Back to top | Tablatures and chords are parodies/interpretations of the original songs. You may use it for private study, scholarship, research or language learning purposes only