» » »

Rage Against The Machine, Microphone Fiend Tabs (ver.3)

Artists:  A B C D E F G H I J K L M N O P Q R S T U V W X Y Z # 

Microphone Fiend Tabs (ver.3)

Rage Against The Machine Tabs
 Rating:
4/5 (4 votes)
Microphone Fiend lessons Tabs too difficult? Try these video lessons and learn fast
                Microphone Fiend
Rage Against The Machine
Standard Tuning (EADGBE)
HARRIS

Intro/Verse - not too sure about this, im just guessing.
Guitar 1 – with wah (0 = pedal at 0, + = pedal fully depressed)
|------------------|
|------------------|
|------------------|
|-x-x-x-x--x-x-x-x-|
|-x-x-x-x--x-x-x-x-|  x18
|-x-x-x-x--x-x-x-x-|
  0 + +0+  0 + +0+

Guitar 2– comes in after 10 plays of verse riff on gtr 1. is prominent.
|---------------------------------------------------------------------|
|---- with delay to get it to repeat the notes if you have delay -----|
|---------------------------------------- just pick the notes --------|
|-4----------------2--------------------------------------------------|  x2
|-----------------------------------4----------------2----------------|
|---------------------------------------------------------------------|

Pre-Chorus
|-----------------|
|-----------------|
|-2~~-2~~-2-2-2-2-|
|-2~~-2~~-2-2-2-2-|
|-0~~-0~~-0-0-0-0-|
|-----------------|

Chorus
|-----------------------------------|
|-----------------------------------|
|-----------------------------------|
|---------------------------24------|
|----------------xx-----x-----------|  x4
|-2~~~~\---------xx-0h2-x-5-----020-|

Then Play
Verse – Only play the gtr.1 riff x9 before gtr.2 comes in.
Chorus

Bridge –Distortion
|--------------------------------------|
|--------------------------------------|
|--------------------------------------|
|-------------------------------24-----|
|-----x----------x----------x----------|  x4
|-0h2-x-5----0h2-x-5----0h2-x-5----020-|

Interlude
|--------------------|
|--------------------|
|--------------------|  x4 clean, then
|--------------------|  x4 w/dist, then
|--------------------|  x16 clean, then
|-3b-x-xx-0-1-2-xxxx-|  x8 w/dist
  |
pre bend then release

Then Play
Bridge

Have fun.
            
Submit corrections

comments powered by Disqus
↑ Back to top | Rage Against The Machine Tabs for Microphone Fiend. Lyrics for acoustic guitar and electric guitar. Tablatures and chords are parodies/interpretations of the original songs. You may use it for private study, scholarship, research or language learning purposes only