» » »

Microphone Fiend Tabs (ver.2)

Artists:  A B C D E F G H I J K L M N O P Q R S T U V W X Y Z # 

Microphone Fiend Tabs (ver.2)

Rage Against The Machine
Rating:
0/5 (0 votes)

Tabs too difficult? Try these video lessons and learn fast.
                Standard Tuning

INTRO/VERSE
w/Wah and whammy pedal set to harmonize one octave lower.
|----------------|                                      
|----------------|                                      
|----------------|                                      
|----------------|                                     
|----------------|                                      
|--2--0--2-2--0--|                                        

VERSE RIFF NO. 2 
(While gtr 1 plays intro riff)
w/Wah Pedal
|------------------------------|
|------------------------------|
|--11--11--11--11--9--9--9-----|
|--11--11--11--11--9--9--9--9--|
|---9---9---9---9--7--7--7--7--|
|------------------------------|

PRE-CHORUS

|----------------------------------|
|----------------------------------|
|----------------------------------|
|---2----2----2--2--2--2-----------|
|---0----0----0--0--0--0-----------|
|----------------------------------|

CHORUS
|--------------------------------------------------|
|---------------x-x--------------------------------|
|---------------x-x--------------------------------|
|---------------x-x--------------2—4---------------|
|---------------x-x---------0----------------------|
|--2-----------------0h2---------------0--2--0-----|

BREAKDOWN
          PM--             PM--             PM--
|-------------------------------------------------------------------|
|-------------------------------------------------------------------|
|-------------------------------------------------------------------|
|---------------------------------------------------2--4------------|
|-------------------------------------------------------------------|
|---0-h-2----0--5----0-h-2----0--5----0-h-2----0--5--------0--2—-0--|

"MUSIC ORIENTATED SO WHEN HIP-HOP WAS CREATED" RIFF
Played a few times with wah on as filter, a few times without.

             PM--
|--------------------------------------|
|----------x-x-----------x-x-x-x-------|
|----------x-x-----------x-x-x-x-------|
|----------x-x-----------x-x-x-x-------|
|----------x-x-----------x-x-x-x-------|
|--2b-(3)-------0-0-1-2----------------| 

Enjoy!
            
Tabs too difficult? Try these video lessons and learn fast.




comments powered by Disqus
↑ Back to top | Tablatures and chords are parodies/interpretations of the original songs. You may use it for private study, scholarship, research or language learning purposes only