>
 >
Microphone Fiend 1

Microphone Fiend 1 Guitar Tabs

Rage Against The Machine - Microphone Fiend 1 chords, tabs, tablatures, lyrics

Guitar lessons | Add/correct | Request | Top 50 tabs Artists:  A B C D E F G H I J K L M N O P Q R S T U V W X Y Z 0-9

Microphone Fiend 1 Guitar Tabs – Rage Against The Machine

CD, Sheet music, Poster

Do you like Microphone Fiend 1? Share with your friends now
Bass TabsBass Tabs v2Bass Tabs v3Bass Tabs v4Bass Tabs v5Bass Tabs v6Drum TabsTabsTabs v2Tabs v3
Standard Tuning

INTRO/VERSE
w/Wah and whammy pedal set to harmonize one octave lower.
|----------------|                                      
|----------------|                                      
|----------------|                                      
|----------------|                                     
|----------------|                                      
|--2--0--2-2--0--|                                        

VERSE RIFF NO. 2 
(While gtr 1 plays intro riff)
w/Wah Pedal
|------------------------------|
|------------------------------|
|--11--11--11--11--9--9--9-----|
|--11--11--11--11--9--9--9--9--|
|---9---9---9---9--7--7--7--7--|
|------------------------------|

PRE-CHORUS

|----------------------------------|
|----------------------------------|
|----------------------------------|
|---2----2----2--2--2--2-----------|
|---0----0----0--0--0--0-----------|
|----------------------------------|

CHORUS
|--------------------------------------------------|
|---------------x-x--------------------------------|
|---------------x-x--------------------------------|
|---------------x-x--------------24---------------|
|---------------x-x---------0----------------------|
|--2-----------------0h2---------------0--2--0-----|

BREAKDOWN
          PM--             PM--             PM--
|-------------------------------------------------------------------|
|-------------------------------------------------------------------|
|-------------------------------------------------------------------|
|---------------------------------------------------2--4------------|
|-------------------------------------------------------------------|
|---0-h-2----0--5----0-h-2----0--5----0-h-2----0--5--------0--2-0--|

"MUSIC ORIENTATED SO WHEN HIP-HOP WAS CREATED" RIFF
Played a few times with wah on as filter, a few times without.

             PM--
|--------------------------------------|
|----------x-x-----------x-x-x-x-------|
|----------x-x-----------x-x-x-x-------|
|----------x-x-----------x-x-x-x-------|
|----------x-x-----------x-x-x-x-------|
|--2b-(3)-------0-0-1-2----------------| 

Enjoy!





Comments


Popular Rage Against The Machine tabs & chords
Bombtrack 1 Bass Tabs
Born Of A Broken Man Bass Tabs
Born Without A Face Bass Tabs
Bullet In The Head 2 Bass Tabs
Revolver 2 Bass Tabs
Year Of Tha Boomerang Bass Tabs
No Shelter Drum Tabs
Clear Tha Lane Tabs
Down On The Street 2 Tabs
Pistol Grip Pump Ukulele


Song lyrics



↑ Back to top | Tablatures and chords are parodies/interpretations of the original songs. You may use it for private study, scholarship, research or language learning purposes only
© 2014 AZChords.com Contact us | Privacy policy | DMCA | Add/correct tabs | Request tabs | Top 50 tabs