>
 >
Microphone Fiend 5

Microphone Fiend 5 Bass Tabs

Rage Against The Machine - Microphone Fiend 5 chords, tabs, tablatures, lyrics

Guitar lessons | Add/correct | Request | Top 50 tabs Artists:  A B C D E F G H I J K L M N O P Q R S T U V W X Y Z 0-9

Microphone Fiend 5 Bass Tabs – Rage Against The Machine

CD, Sheet music, Poster

Do you like Microphone Fiend 5? Share with your friends now
Bass TabsBass Tabs v2Bass Tabs v3Bass Tabs v4Bass Tabs v5Bass Tabs v6Drum TabsTabsTabs v2Tabs v3
Song  : Microphone Fiend
Album : Renegades
Tuning: DADG (drop D) 


x - Dead note
^ - Bend
h - Hammer on
~ - Let the note ring
/ - slide up
\ - slide down
Verse

G|--------------------------------|
D|--------------------------------|
A|--------------------------rest--|
D|--2/4\-2/4\--2/7\---2/4\2-------|


Pre Chorus

G|------------------------------|
D|------------------------------|
A|--0-----0-----0---0---0---0---|
D|------------------------------|


Chorus

G|----------------------------------|
D|----------------------2-4---------|
A|------------------x-4-------------|
D|--4\----------2h4---------2--4--2-|


Bridge 1
  x3                                        
G|------------------|         E|--------------|
D|------------------|         D|--2-4---------|
A|--------0---------|  Then   A|--------------|
D|--2h4-x-----------|         D|------2--4--2-|


Bridge 2    
only do a very small bend

G|------------------------------|
D|------------------------------|    
A|--^---------------------------|
D|--4---x-x----x-2h3-4--x-x-x-x-|

Build Up For Bridge 2       
only do a very small bend

G|--------------------------|        
D|--------------------------|         
A|--^--^--^--^--^--^--^--^--|         
D|--4--4--4--4--4--4--4--4--| 		   





Comments


Popular Rage Against The Machine tabs & chords
Bombtrack 3 Bass Tabs
Good Morning Vietnam Bass Tabs
Hadda Be Playin On The Jukebox Bass Tabs
Hadda Be Playin On The Jukebox 2 Bass Tabs
Renegades Of Funk Bass Tabs
Killing In The Name Real Tab Tabs
Mic Check 2 Tabs
The One Without The Gun Tabs
Vietnow Tabs
Without A Face 1 Tabs


Song lyrics



↑ Back to top | Tablatures and chords are parodies/interpretations of the original songs. You may use it for private study, scholarship, research or language learning purposes only
© 2014 AZChords.com Contact us | Privacy policy | DMCA | Add/correct tabs | Request tabs | Top 50 tabs