» » »

Mic Check Tabs (ver.3)

Artists:  A B C D E F G H I J K L M N O P Q R S T U V W X Y Z # 

Mic Check Tabs (ver.3)

Rage Against The Machine
Rating:
0/5 (0 votes)

Tabs too difficult? Try these video lessons and learn fast.
                aCOLYTE


E-------2----------4---------2---------1--
B-----2----------2---------2---------2----
G---2----------2---------2---------2------
D-4----------4---------4---------4--------
A-----------------------------------------
E-----------------------------------------

The song goes into the chorus (where there's no guitar), back to the above
riff, then the chorus, then onto a new part. Two guitars are audible here,
one playing this:

E-----------
B-5--4--4--4
G-5--5--5--5   
D-----------
A-----------
E-----------

...and another guitar, making a REALLY wierd bomb-dropping noise. I can't
get even close to this, you're gonna have to play around with this one.
            
Tabs too difficult? Try these video lessons and learn fast.


comments powered by Disqus
↑ Back to top | Tablatures and chords are parodies/interpretations of the original songs. You may use it for private study, scholarship, research or language learning purposes only