» » »

Mic Check Tabs (ver.2)

Artists:  A B C D E F G H I J K L M N O P Q R S T U V W X Y Z # 

Mic Check Tabs (ver.2)

Rage Against The Machine
Rating:
0/5 (0 votes)

Hard to play? Try these video lessons and learn fast.
                Tuning: Dropped D


  Intro|Verses:       
E|-----------14-(14)-(14)--|-----------16-(16)-(16)--|
B|--------14---------------|--------14---------------|
G|*----14------------------|-----14------------------|
D|*-16---------------------|--16---------------------|
A|-------------------------|-------------------------|
D|-------------------------|-------------------------|
    

E|-----------14-(14)-(14)--|-------------------------|
B|--------14---------------|--------14--18-(18)-(18)-|
G|-----14------------------|-----14-----------------*|
D|--16---------------------|--16--------------------*|
A|-------------------------|-------------------------|
D|-------------------------|-------------------------|


  
  Bass 
E|-------------------------|-------------------------|
B|-------------------------|-------------------------|
G|*------------------------|------------------------*|
D|*-4---2---------4--------|--4---2---------4-------*|
A|--4---2---------4--------|--4---2---------4--------|
D|--4---2---------4--------|--4---2---------4--------|

  Interlude
E|----0-----0-----0-----0--|----0-----0-----0-----0--|G
B|----5-----4-----4-----4--|----5-----4-----4-----4--|T
G|*---0-----0-----0-----0--|----0-----0-----0-----0--|R
D|*------------------------|-------------------------|
A|-------------------------|-------------------------|1
D|-------------------------|-------------------------|

E|---\----/----\-------------------------------------|G
B|-----\/--------\-----------------------------------|T
G|*----------------\---------------------------------|R
D|*------------------\-------------------------------|
A|---------------------\-----------------------------|2
D|--(15)-x-x-x-x-x-x-x-x-x-x-x-x-x-x-x-x-x-x-x-x-x---|
            
Hard to play? Try these video lessons and learn fast. | Correct




comments powered by Disqus
↑ Back to top | Tablatures and chords are parodies/interpretations of the original songs. You may use it for private study, scholarship, research or language learning purposes only