» » »

Rage Against The Machine, Know Your Enemy Bass tabs (ver.1)

Artists:  A B C D E F G H I J K L M N O P Q R S T U V W X Y Z # 

Know Your Enemy Bass tabs (ver.1)

Rage Against The Machine Tabs
 Rating:
4/5 (4 votes)
Know Your Enemy lessons Tabs too difficult? Try these video lessons and learn fast
1
                Band- Rage Against Ther Machine 
Song- Know your enemy
Album- Rage Against The Machine

This a good tune to rock out to...so enjoy!

intro
G---------l--p4
D---------l--p2
A---------l----
E-2-2-2-2-l02--

G------------------------------------------------------
D------------------------------------------------------
A--------0-------------3-2-0-------0-------------4-2-0-
E-0-222-0-2-0-2-0-222-0-----0-222-0-2-0-2-0-222-0-----0

verse 4x
G-----------------------------
D-4----------23-4-------------
A-------0-234---------0-232-0-
E--2-02-----------2-02-------0

before "know your enemy" when bass and drums get back in
G-------
D-------
A-4-2-0-
E------0

2x
G------------------------------------------------------
D------------------------------------------------------
A--------0-------------3-2-0-------0-------------4-2-0-
E-0-222-0-2-0-2-0-222-0-----0-222-0-2-0-2-0-222-0-----0

verse 4x
G------------------------------
D-4----------23-4--------------
A-------0-234----------0-232-0-
E--2-02-----------2-02--------0

after second verse
G----------------------------------------
D----------------------------------------
A------------------0------------------2-0
E-222-00-222-00-222--222-00-222-00-222---


G-------
D-------
A-4-2-0-
E------0

4x
G-------------------------------------------------------
D------------------------------------------------6-4-2--
A--------0-------------3-2-0-------0-------------4-2-0-2
E-0-222-0-2-0-2-0-222-0-----0-222-0-2-0-2-0-222-0------0
-
jumps back in with his fancy effects (dont know what kind)
5x
G------------------------------
D-4----------23-4--------------
A-------0-234----------0-232-0-
E--2-02------------2-02-------0

thats all
            
Submit corrections

comments powered by Disqus
↑ Back to top | Rage Against The Machine Bass for Know Your Enemy. Lyrics for acoustic guitar and electric guitar. 1 Tablatures and chords are parodies/interpretations of the original songs. You may use it for private study, scholarship, research or language learning purposes only