» » »

Rage Against The Machine, Know Your Enemy Tabs (ver.2)

Artists:  A B C D E F G H I J K L M N O P Q R S T U V W X Y Z # 

Know Your Enemy Tabs (ver.2)

Rage Against The Machine Tabs
Rating:
0/5 (0 votes)
Know Your Enemy lessons Tabs too difficult? Try these video lessons and learn fast
                EADGBE Tuning (standard)

This should be right, thanks to my guitar teacher.
A harmonizer pedal is used for the intro and solo.


The toggle-switch part of the solo is kinda sketchy,
and the end of it is probably best improvised...

Intro
------

e|------------------------------------------------------------------------------
B|------------------------------------------------------------------------------
G|----------------2------------------------4--2---------------------2-----------
D|-4--2--4--2--4-----4--2---4--2--4--2--4--------2---4--2--4--2--4-----4--2--4--
A|------------------------------------------------------------------------------
E|------------------------------------------------------------------------------
                                                                              

e|------------------------------------------------------------------------------|
B|------------------------------------------------------------------------------|
G|------------------------------------------------------------------------------|
D|--2--2--2--2--2--2--3---------------------------------------------------------|
A|------------------------------------------------------------------------------|
E|------------------------------------------------------------------------------|
                                                                              

Main Riff
----------

e|------------------------------------------------------------------------------
B|------------------------------------------------------------------------------
G|------------------------------------------------------------------------------
D|----------------2---------------------------5--4--2---------------------------
A|--4----4--4-----0--4--4--4----4----4--4-----3--2--0---------------------------
E|--0h2--2--2--0-----2--0--2----0h2--2--2--0------------------------------------
                                                                              

e|------------------------------------------------------------------------------|
B|------------------------------------------------------------------------------|
G|------------------------------------------------------------------------------|
D|----------------2----------------5-----4-----2--------------------------------|
A|--4----4--4-----0--4--4--4-------3-----2-----0---2----------------------------|
E|--0h2--2--2--0-----2--0--2----x-----x-----x------0----------------------------|
                                                                              

Verses
-------

e|------------------------------------------------------------------------------|
B|------------------------------------------------------------------------------|
G|------------------------------------------------------------------------------|
D|--4-----------------------2--3--4---------------------------------------------|
A|--------------0--2--3--4---------------------0--2--3--2--0--------------------|
E|-----2--0--2------------------------2--0--2-----------------2-----------------|
                                                                              

Interlude
----------

e|--5---------------------------------------------------------------------------
B|--5-------------------------------------------9-------------------------------
G|--5-------------------------------------------9-------------------------------
D|--5-------------------------------------------7-------------------------------
A|--0-----4-4-4---------4-4-4--------4-4-4------7-------------------------------
E|--------2-2-2----0-0--2-2-2---0-0--2-2-2--0-----------------------------------
          pm...    ...  .....   ...  .....  .                                                       

e|------------------------------------------------------------------------------|
B|------------------------------------------------------------------------------|
G|-----------------------------------------5--4---------------------------------|
D|-----------------------------------------5--4--3------------------------------|
A|--4-4-4---------4-4-4---------4-4-4------3--2--3------------------------------|
E|--2-2-2----0-0--2-2-2----0-0--2-2-2---0--------1------------------------------|
    .....    ...  .....    ...  .....   .                                                           


Solo
-----

Use a harmonizer pedal for most of this!

e|------------------------12b-------17b-----------------------------------------
B|----14b----14b---14b----------------------------------------------------x-x---
G|-----------------------------14---------14---13~--13--14--13------------x-x---
D|--------------------------------------------------------------14b15r14--x-x---
A|------------------------------------------------------------------------------
E|------------------------------------------------------------------------------
                                                                              

e|------------------------16-17-19-17-16----------------------------------------
B|------------------17-19----------------19-17-16-------------------------------
G|---------16-18-19-------------------------------19-17-16-16~------------------
D|---18-19----------------------------------------------------------------------
A|------------------------------------------------------------------------------
E|------------------------------------------------------------------------------
                                                                              

e|-----------17h19h21------------------------------------------------17---------
B|--17h19h21----------17h19h21------------------------------17h19h21------------
G|------------------------------18h19h21-----------18h19h21---------------------
D|----------------------------------------18h19h21------------------------------
A|------------------------------------------------------------------------------
E|------------------------------------------------------------------------------
                                                                              

e|-----------17-----------17h19h21----------------------------------------------
B|--17h19h21-----17h19h21----------17h19h21-------------------------------------
G|-------------------------------------------18h19h21-----------18h19h21--------
D|-----------------------------------------------------18h19h21-----------------
A|------------------------------------------------------------------------------
E|------------------------------------------------------------------------------
                                                                              

e|-----------17-------------17h19h21p19p17--------------------------------------
B|--17h19h21------17h19h21-----------------21~----------------------------------
G|------------------------------------------------------------------------------
D|------------------------------------------------------------------------------
A|------------------------------------------------------------------------------
E|------------------------------------------------------------------------------
            

Beginning here, flip your toggle switch back and forth
while hammering on as hard as you can with your left hand                                                                  

e|------------------------------------------------------------------------------
B|--------------------------10--------------------------------------------------
G|-------------11---------------------------------------------11----------------
D|-------11------------------------11--------------11-------------------11------
A|--9--9----9------9--9--9------9--------9--9--9--------9--9------9--9----------
E|------------------------------------------------------------------------------
                                                                              

e|------------------------------------------------------------------------------
B|-------------------10------------------------------10-------------------------
G|-----------11--------------11---------------11------------11------11-----10---
D|------------------------------------11----------------------------------------
A|--9--9--9-------9-------9--------9-------9------9------9-------9------8-------
E|------------------------------------------------------------------------------
                                                                              

e|------------------------------------------------------------------------------
B|-----------------------------------------14-----------------------------------
G|--------9b11\----------------14----------------14---------------------16------
D|-----------------------14----------------------------14---------16------------
A|--8--7-----------12-12----12----12-12-12----12----12------14-14----14----14---
E|------------------------------------------------------------------------------
                                                                              

e|------------------------------------------------------------------------------|
B|-------15---------------------------------------18----------------------------|
G|-------------16---------------------18----------------18\----5--4--2~--(5)----|
D|-------------------16---------18-----------------------------5--4--2~-----(7)-|
A|-14-14----14----14------16-16----16----16-16-16----16--------3--2--0~---------|
E|------------------------------------------------------------------------------|
                                                                              

Fill after rhythm starts again:

e|--------------------------------------|
B|--14b---14b---14b---14b---14b---14b~--|
G|--------------------------------------|
D|--------------------------------------|
A|--------------------------------------|
E|--------------------------------------|
                                                                              

-Peace
Tim
            
Submit corrections

comments powered by Disqus
↑ Back to top | Rage Against The Machine Tabs for Know Your Enemy. Lyrics for acoustic guitar and electric guitar. Tablatures and chords are parodies/interpretations of the original songs. You may use it for private study, scholarship, research or language learning purposes only