» » »

In My Eyes Tabs (ver.2)

Artists:  A B C D E F G H I J K L M N O P Q R S T U V W X Y Z # 

In My Eyes Tabs (ver.2)

Rage Against The Machine
Rating:
0/5 (0 votes)

Hard to play? Try these video lessons and learn fast.
                ^= harmonics
i didnt put when to play everything but every riff is here
and labeled

-9---9------------------9-------------------9-------------------7^7^7^7^7^7^--
-9---9------------------9-------------------9-------------------7^7^7^7^7^7^--
-9---9--9-x-8-x-7---7-8-9---9-x-8-x-7---7-8-9---9-x-8-x-7---7-8---------------
-7---7--7-x-6-x-5-7-5-6-7---7-x-6-x-5-7-5-6-7---7-x-6-x-5-7-5-6---------------
------------------5-------------------5-------------------5-------------------
                                                                              

-7^7^-----------------7^7^7^7^7^7^7^7^----------------------------------------
-7^7^-----------------7^7^7^7^7^7^7^7^-------------------9--------------------
-7^7^-----------------7^7^7^7^7^7^7^7^-------------------9--------------------
------9-x-8-x-7---7-8------------------9-x-8-x-7-x---7-8-9---9-x-6-x-7---7-8--
------7-x-6-x-5-7-5-6------------------7-x-6-x-5-x-7-5-6-7---7-x-8-x-5-7-5-6--
----------------5----------------------------------5-------------------7------
                                                                              

----|--------------------------------------------------------------------|----
-9--|--------------------------------------------------------------------|----
-9--|--------------------------------------------------------------------|----
-9--|-5-5-5-5-5-5-5--5-5-5-5-5-5-5--5-5-5-5-5-5-5--5-x-----8-x-----10-10-|----
-7--|-5-5-5-5-5-5-5--5-5-5-5-5-5-5--5-5-5-5-5-5-5--3-x-7-x-6-x-8-x--8--8-|----
----|-3-3-3-3-3-3-3--3-3-3-3-3-3-3--3-3-3-3-3-3-3------5-x-----6-x-------|----
                                                                              

---------------------------------|---------------------------------|----------
---------------------------------|---------------------------------|----------
---------------------------------|---------------------------------|----------
-----7-7-----7-7-----------------|-----------------7-7-7-7-7-7-7-7-|----------
-7-7-5-5-7-7-5-5-7-7-7-7-9-9-9-9-|-5-5-5-5-5-5-5-5-5-5-5-5-5-5-5-5-|----------
-5-5-5-5-5-5-5-5-5-5-5-5-7-7-7-7-|-3-3-3-3-3-3-3-3-----------------|----------
                                 pm...............
            
Hard to play? Try these video lessons and learn fast. | Correct




comments powered by Disqus
↑ Back to top | Tablatures and chords are parodies/interpretations of the original songs. You may use it for private study, scholarship, research or language learning purposes only