» » »

Rage Against The Machine, In My Eyes Tabs (ver.3)

Artists:  A B C D E F G H I J K L M N O P Q R S T U V W X Y Z # 

In My Eyes Tabs (ver.3)

Rage Against The Machine Tabs
Rating:
0/5 (0 votes)
In My Eyes lessons Tabs too difficult? Try these video lessons and learn fast
                In My Eyes
Rage Against The Machine
Standard Tuning ( E – A – D – G – B – e )

Intro – where the x/x/x is written, slide your hand up the strings while half pressing, half muting them, whilst playing.
|-0~~~~~~~~-------------|-0~~~~~~~~-------------|-x/x/x/x/x/-------------|
|-0~~~~~~~~-------------|-0~~~~~~~~-------------|-x/x/x/x/x/-------------|
|-----------------------|-----------------------|-x/x/x/x/x/-------------|
|-----------------------|----------7-6-5--------|-----------7-6-5--------|
|-----------------------|----------5-4-3-5-7-10-|-----------5-4-3-5-7-10-|
|-----------------------|----------------3-5--8-|-----------------3-5--8-|
x1                      x3                      x2

|-0~~~~~~~~~------------|-0~~~~~~~~~~~~~~~~~----------|
|-0~~~~~~~~~------------|-0~~----0--------------------|
|-----------------------|-----------0-----------------|
|----------7-6-5--------|--------------0-----------2~-|
|----------5-4-3-5-7-10-|-----------------2~~~-2~~----|
|----------------3-5--8-|-----------------------------|
x1                      x1

Verse 1
|--------------------------------------------|
|--------------------------------------------|
|--------------------------------------------|
|-555555-55555555555555----------------------|
|-555555-55555555555555----------------------|
|-333333-33333333333333----------------------|
pm_____________________  - only semi-pm

|--------------------------------------------|
|--------------------------------4-------6-6-|
|------------------------5---2---3---3---5-5-|
|-555555-55555555555555--5---2---1---3---3-3-|
|-555555-55555555555555--3---0-------1-------|  x4
|-333333-33333333333333----------------------|
pm_____________________  - only semi-pm

|--------------------------------------------|
|--------------------------------4-------6~~-|
|------------------------5---2---3---3---5~~-|
|-555555-55555555555555--5---2---1---3---3~~-|
|-555555-55555555555555--3---0-------1-------|
|-333333-33333333333333----------------------|
pm_____________________  - only semi-pm

Chorus
Part 1 – No guitar
Part 2
|-------------------------------------------------------------------------|
|----------3---3-33----------3---3-33----------3---3-33-------------------|
|----------2---2-22----------2---2-22----------2---2-22----------2~~~~----|
|-22222222-0---0-00-22222222-0---0-00-22222222-0---0-00-22222222-2~~~~----|
|-22222222----------22222222----------22222222----------22222222-0~~~~----|
|-00000000----------00000000----------00000000----------00000000----------|
pm________          ________          ________          ________

Verse 2
|----------------------------------------------------|
|----------------------------------------4-------6-6-|
|--------------------------------5---2---3---3---5-5-|
|-55555555555555555555555555555--5---2---1---3---3-3-|
|-55555555555555555555555555555--3---0-------1-------|
|-33333333333333333333333333333----------------------|
pm_____________________________  - only semi-pm

|--------------------------------------------|
|--------/xxx/x/x//x/x/----------4-------6-6-|
|--------/x/x/x/x//x/xx--5---2---3---3---5-5-|
|-555555-/xx/x/x/x/xxx/--5---2---1---3---3-3-|
|-555555-----------------3---0-------1-------|
|-333333-------------------------------------|
pm______  - only semi-pm

|--------------------------------------------|
|--------------------------------4-------6-6-|
|------------------------5---2---3---3---5-5-|
|-555555-55555555555555--5---2---1---3---3-3-|
|-555555-55555555555555--3---0-------1-------|  x3
|-333333-33333333333333----------------------|
pm_____________________  - only semi-pm

|--------------------------------------------|
|--------------------------------4-------6~~-|
|------------------------5---2---3---3---5~~-|
|-555555-55555555555555--5---2---1---3---3~~-|
|-555555-55555555555555--3---0-------1-------|
|-333333-33333333333333----------------------|
pm_____________________  - only semi-pm

Then Play
Chorus

Outro
|-------------------------------------------------|
|--------------------------------4-------6-6---6\-|
|------------------------5---2---3---3---5-5---5\-|
|-555555-55555555555555--5---2---1---3---3-3---3\-|
|-555555-55555555555555--3---0-------1------------|
|-333333-33333333333333---------------------------|
pm_____________________  - only semi-pm

END.

Thanks Bye
            

comments powered by Disqus
↑ Back to top | Rage Against The Machine Tabs for In My Eyes. Lyrics for acoustic guitar and electric guitar. Tablatures and chords are parodies/interpretations of the original songs. You may use it for private study, scholarship, research or language learning purposes only