» » »

Rage Against The Machine, How Could I Just Kill A Man Tabs (ver.2)

Artists:  A B C D E F G H I J K L M N O P Q R S T U V W X Y Z # 

How Could I Just Kill A Man Tabs (ver.2)

Rage Against The Machine Tabs
Rating:
0/5 (0 votes)
How Could I Just Kill A Man lessons Tabs too difficult? Try these video lessons and learn fast
                Rage against the machine
                              How i could just kill a man

I changed the title to this song so i could get the correct version of it on here.

Intro/verse- Use wah
Drop D-

E----------------------------------------
B----------------------------------------
G----------------------------------------
D------------------3---------------------
A-3-5-3-5--3-5-5-3---3-5-3-5--3-5-5-3-5--
D----------------------------------------


Chorus- Wah off
"how i could just kill a man"
E---------------------------------------
B---------------------------------------
G---------------------------------------
D---3-----------------------------------
A-----------3------------x-x-3h5-3------
D-0---0-3-5----0-0-0-0-0-x-x-3h5-3------

End of chorus-
E---------------------------
B---------------------------
G---------------------------
D---------------------------
A-0-0-0-0-0-----------------
D-0-0-0-0-0-----------------

Bridge-
"One chump tried to come in my home"
E-----------------------
B-----------------------
G-----------------------
D-----------------------
A-0-0-0-0-0-------------
D-0-0-0-0-0-------------

Little weird guitar solo thing-(weird pedal)
E-----------------------------
B---7-8----7-8----7-8---------
G-9-----7-9----7-9------------
D-----------------------------
A-----------------------------
D-----------------------------

Outro-
E----------------------
B----------------------
G----------------------
D----------------------
A-0-0-0-0-0------------
D-0-0-0-0-0------------

Please rate or comment! d1mesboy-
            
Submit corrections

comments powered by Disqus
↑ Back to top | Rage Against The Machine Tabs for How Could I Just Kill A Man. Lyrics for acoustic guitar and electric guitar. Tablatures and chords are parodies/interpretations of the original songs. You may use it for private study, scholarship, research or language learning purposes only