» » »

Rage Against The Machine, How Could I Just Kill A Man Tabs (ver.1)

Artists:  A B C D E F G H I J K L M N O P Q R S T U V W X Y Z # 

How Could I Just Kill A Man Tabs (ver.1)

Rage Against The Machine Tabs
 Rating:
4/5 (4 votes)
How Could I Just Kill A Man lessons Tabs too difficult? Try these video lessons and learn fast
1
                This is my favorite song from the new Rage Album and I haven't find any tab of it yet, so I do it. Enjoy it.

Drop D tuning

v means little vibrato, you can also bend and immediatly release for the same effect. Tom uses a wha-wha pedal.

Intro & verse
e|--------------------------------------------------------------------------------------------------------------------|
b|---------------------------------------------------------------------------------------------------------------------|
G|--0-2v-2v-0-2vv-0-2v-2v-0-(2)/5vvvv----0-2v-2v-0-2vv-0-2v-2v-0-2vvvv---------------------|
D|---------------------------------------------------------------------------------------------------------------------|
A|---------------------------------------------------------------------------------------------------------------------|
D|----------------------------------------------------------------------------------------------------------------------|

Chorus
e|-----------------------------------------------------------|
B|-----------------------------------------------------------|
G|-----------------------------------------------------------|
D|--0--7--0--1~--2~----0-0-0-0-0-----------------------------|
A|--0--7--0--1~--2~----0-0-0-0-0-----------------------------|
D|--0--7--0--1~--2~----0-0-0-0-0--0h1p0----------------------|

Somtimes this riff is used
e|---------------------------------------------------------------------|
B|---------------------------------------------------------------------|
G|---------------------------------------------------------------------|
D|--0--0--0--0--0------------------------------------------------------|
A|--0--0--0--0--0------------------------------------------------------|
D|--0--0--0--0--0------------------------------------------------------|

Little solo with some effect
e|-------------------------------------------------------------------|
B|-------------------------------------------------------------------|
G|--0-2-4---or--0h2h4------------------------------------------------|
D|-------------------------------------------------------------------|
A|-------------------------------------------------------------------|
D|-------------------------------------------------------------------|

Outro
e|----------------------------------------------------------------------|
B|----------------------------------------------------------------------|
G|----------------------------------------------------------------------|
D|----3---3---3---3-3---------------------------------------------------|
A|----3---3---3---3-3---------------------------------------------------|
D|----3---3---3---3-3---------------------------------------------------|
            
Submit corrections

comments powered by Disqus
↑ Back to top | Rage Against The Machine Tabs for How Could I Just Kill A Man. Lyrics for acoustic guitar and electric guitar. 1 Tablatures and chords are parodies/interpretations of the original songs. You may use it for private study, scholarship, research or language learning purposes only