» » »

Rage Against The Machine, Born As Ghosts  Tabs (ver.3)

Artists:  A B C D E F G H I J K L M N O P Q R S T U V W X Y Z # 

Born As Ghosts  Tabs (ver.3)

Rage Against The Machine Tabs
Rating:
0/5 (0 votes)
Born As Ghosts  lessons Tabs too difficult? Try these video lessons and learn fast
                <<< Born As Ghosts >>>



Symbols:   
   w/ = Whammy bar up
   w/ = Whammy bar down
   wr = Release Whammy bar (to normal postiton)
    : = Take pressure off strings to mute
    ~ = Let Ring
   b/ = Bend up
    r = Release Bend (To previous note)


Intro/Verse: x36 (Distortion
E--------------|
B--------------|
G--------------|
D---2w\-rw-:---|
A---2------:---|
E---0------:---|


Listen for this part in the intro/verse: x16 (Wah)
E--------|
B--------|
G--------|
D--------|
A---10---|
E--------|

                             ________________
Chorus: x8 (Distortion)      |After 8th time
E----------------------------|--------------|
B----------------------------|--------------|
G-----7-------7~b/r--9b/r----|-----7--------|
D-----7-------7~b/r----------|-----7--------|
A-----5-------5~b/r----------|-----5--------|
E--0-----0-0-----------------|--0-----------|
  (^PM)                        (^PM) 


Verse: x28 (Distortion
E--------------|
B--------------|
G--------------|
D---2w\-rw-:---|
A---2------:---|
E---0------:---|


Listen for this part in the intro/verse: x12 (Wah)
E--------|
B--------|
G--------|
D--------|
A---10---|
E--------|

                             ________________
Chorus: x8 (Distortion)      |After 8th time
E----------------------------|--------------|
B----------------------------|--------------|
G-----7-------7~b/r--9b/r----|-----7--------|
D-----7-------7~b/r----------|-----7--------|
A-----5-------5~b/r----------|-----5--------|
E--0-----0-0-----------------|--0-----------|
  (^PM)                        (^PM) 


...Then the ridiculous solo (I dont have it tabbed, sorry)

                             ________________
Chorus: x8 (Distortion)      |After 8th time
E----------------------------|--------------|
B----------------------------|--------------|
G-----7-------7~b/r--9b/r----|-----7--------|
D-----7-------7~b/r----------|-----7--------|
A-----5-------5~b/r----------|-----5--------|
E--0-----0-0-----------------|--0-----------|
  (^PM)                        (^PM) 


Finish with this:
E----------------|
B----------------|
G----------------|
D---2~----2\:----|
A---2~----2\:----|
E---0~----0------|
            
Submit corrections

comments powered by Disqus
↑ Back to top | Rage Against The Machine Tabs for Born As Ghosts . Lyrics for acoustic guitar and electric guitar. Tablatures and chords are parodies/interpretations of the original songs. You may use it for private study, scholarship, research or language learning purposes only