» » »

Born As Ghosts  Bass tabs (ver.2)

Artists:  A B C D E F G H I J K L M N O P Q R S T U V W X Y Z # 

Born As Ghosts  Bass tabs (ver.2)

Rage Against The Machine
Rating:
0/5 (0 votes)

Hard to play? Try these video lessons and learn fast.
                Rage Against The Machine
BORN AS GHOSTS


tuning:(E,A,D,G)

verse:

G--------------------
D--------0------0---
A-----------9--------
E---0----------------

chorus:

G-------------------------
D--------------------0---
A-------------------------
E---0-0-----0-0--------

interlude:

G------------------------------------------------
D------------------------------------------------
A---7---7---7--5-7-5------7---7---7---7---
E------------------------5-0--------------------
            
Hard to play? Try these video lessons and learn fast. | Correct




comments powered by Disqus
↑ Back to top | Tablatures and chords are parodies/interpretations of the original songs. You may use it for private study, scholarship, research or language learning purposes only