» » »

Radiohead, Sit Down Stand Up Bass tabs (ver.1)

Artists:  A B C D E F G H I J K L M N O P Q R S T U V W X Y Z # 

Sit Down Stand Up Bass tabs (ver.1)

Radiohead Tabs
Rating:
0/5 (0 votes)
Sit Down Stand Up lessons Tabs too difficult? Try these video lessons and learn fast
                Tuning: Standard (E A D G)

The bass doesn't come in untill after the drum roll. You really have to listen for the bass, you can not really wing this song. I tabbed this off the MTV 2$ Bill video, so it might be a little different then the album. I am not very confident in this tab I think there is a lot of room for error with all the variations, please send me corrections if you hear something I didn't when I did this. : - )

Riff: 1
G|-------------------------------------------------||
D|-------------------------------------------------||
A|-12-----12----12-14---12-----12----12-14---------||
E|---14-12--12-------12---14-12--12-------12-------||

Riff 2:
G|--------------------------------------------------||
D|--------------------------------------------------||
A|-12-----12-----12--12-----12-----12---------------||
E|---12-12--12-12--12--12-12--12-12--12-------------||

Riff 3:
G|-------------------------------------------------||
D|-------------------------------------------------||
A|-12-----12----14-12---12-----12----12-14---------||
E|---12-14--12-------12---12-14--12-------12-------||


Riff 4:
G|--------------------------------------------------||
D|-14-14-14-14-14-14-14-14-12-12-12-12-12-12-12-12--||
A|--------------------------------------------------||
E|--------------------------------------------------||

Riff 5:
G|------------------------------||
D|-----------------------------||
A|-7-----5---7-7---5-7---------||
E|---7-7---7-----7-----7-------||

Riff 6:
G|---------------------||
D|---------------------||
A|-12-----12-----12--12||
E|---12-12--12-12--12--||

Order:
Riff 1
Riff 4
Riff 1
Riff 4
Riff 3
Riff 4
Riff 3
Riff 4
Riff 2
Riff 4
Riff 6
Riff 4
Riff 5: Till end
            

comments powered by Disqus
↑ Back to top | Radiohead Bass for Sit Down Stand Up. Lyrics for acoustic guitar and electric guitar. Tablatures and chords are parodies/interpretations of the original songs. You may use it for private study, scholarship, research or language learning purposes only