» » »

Radiohead, Sit Down Stand Up Bass tabs (ver.2)

Artists:  A B C D E F G H I J K L M N O P Q R S T U V W X Y Z # 

Sit Down Stand Up Bass tabs (ver.2)

Radiohead Tabs
Rating:
0/5 (0 votes)
Sit Down Stand Up lessons Tabs too difficult? Try these video lessons and learn fast
                ----------------------------------------------------------------------------
                       sit down stand up-radiohead
----------------------------------------------------------------------------

Standard tuning
(1:44)
G------------------------------|
D------------------------------|
A------------------------------|   Repeat
E--1-1-----1-1-----1-1-----1-1-|

(3:04)
G------------------------8--8-8-8-8-8-7--7-7-7-7-7-|
D-----6-6--------6-6---6---------------------------| repeat with variation
A-6-8------6-8-6-----8-----------------------------|
E--------------------------------------------------|


(3:39) This bit is tricky because it's in a weird time signature.
G---------------------------|
D------6-----------6--------|
A--6h8---8-6\5-6h8---8-6\5--|  repeat
E---------------------------|


(3:59)
G------------------------------------|
D------------------------------------|
A-6--6--6--5--5--5--2--2--2--1--1--1-|
E------------------------------------|

(4:05)
G---------------------------|
D------6-----------6--------|
A--6h8---8-6\5-6h8---8-6\5--|  repeat
E---------------------------|
            
Submit corrections

comments powered by Disqus
↑ Back to top | Radiohead Bass for Sit Down Stand Up. Lyrics for acoustic guitar and electric guitar. Tablatures and chords are parodies/interpretations of the original songs. You may use it for private study, scholarship, research or language learning purposes only