» » »

Radiohead, Sit Down Stand Up Tabs (ver.1)

Artists:  A B C D E F G H I J K L M N O P Q R S T U V W X Y Z # 

Sit Down Stand Up Tabs (ver.1)

Radiohead Tabs
 Rating:
4/5 (4 votes)
Sit Down Stand Up lessons Tabs too difficult? Try these video lessons and learn fast
                RADIOHEAD - Sit Down Stand Up
Album - Hail to the Thief
Released - 2003

Main tune/Riff


- Far easier with Capo on 8th fret
        
        Sit down....
           F      Gadd9       Fadd9
 E |----9--8------8----8------8---8----8---8---|
 B |----9--9------9----11-----9---11---9---12--|
 G |----10-10-----8----8------8---8----8---8---| Repeat
 D |----10-10-----10---10-----10--10---10--10--|
 A |-8-----------------------------------------|
 E |------------11---11------9---9----9---9----|



(Easy way to bluff the melody)
Intro/Main Riff

                        (Repeats this section)
                po  ho             po  ho
E----------------------|-----------------|
B----------------------|-----------------|
G----6-5--3--1--3-1----|6-5--3--1--3-1---|
D--3---------------1-3-|--------------1-3|
A----------------------|-----------------|
E----------------------|-----------------|
            
Submit corrections

comments powered by Disqus
↑ Back to top | Radiohead Tabs for Sit Down Stand Up. Lyrics for acoustic guitar and electric guitar. Tablatures and chords are parodies/interpretations of the original songs. You may use it for private study, scholarship, research or language learning purposes only