» » »

Radiohead, Nude Bass tabs (ver.2)

Artists:  A B C D E F G H I J K L M N O P Q R S T U V W X Y Z # 

Nude Bass tabs (ver.2)

Radiohead Tabs
 Rating:
4/5 (4 votes)
Nude lessons Tabs too difficult? Try these video lessons and learn fast
                -------------------------------------------------------------------------------
                             Nude - Radiohead
-------------------------------------------------------------------------------


0:40
G|-------------------------------------------------------|
D|--------18------18-------------------18------18--------|
A|-------------------------------------------------------|
E|---16--------16----16-16------X-16--------16----16-16--|

G|----------------------------|
D|--------18------18----------|
A|----------------------------|
E|-X-16--------16----16-16----|x3

G|----------------------------|
D|--------19------19----------|
A|----------------------------|
E|-X-17--------17----17-17----|

G|----------------------------|
D|--------14------14----------|
A|----------------------------|
E|-X-12--------12----12-12----|

G|--------18------18----------|
D|----------------------------|
A|-X-16--------16----16-16----|
E|----------------------------|x2

G|-------16-------16----------|
D|----------------------------|
A|-X-14--------14----14-14----|
E|----------------------------|x2

1:13
G|----------------------------|
D|--------18------18----------|
A|----------------------------|
E|-X-16--------16----16-16----|x4

G|----------------------------|
D|--------19------19----------|
A|----------------------------|
E|-X-17--------17----17-17----|

G|----------------------------|
D|--------14------14----------|
A|----------------------------|
E|-X-12--------12----12-12----|

G|--------18------18----------|
D|----------------------------|
A|-X-16--------16----16-16----|
E|----------------------------|x2

G|-------16-------16----------|
D|----------------------------|
A|-X-14--------14----14-14----|
E|----------------------------|x2

1:42
G|----------------------------|
D|--------18------18----------|
A|----------------------------|
E|-X-16--------16----16-16----|x2

G|----------------------------|
D|--------19------19----------|
A|----------------------------|
E|-X-17--------17----17-17----|x2

G|----------------------------|
D|--------18------18----------|
A|----------------------------|
E|-X-16--------16----16-16----|x2

G|----------------------------|
D|--------19------19----------|
A|----------------------------|
E|-X-17--------17----17-17----|x2

G|--------18------18----------|
D|----------------------------|
A|-X-16--------16----16-16----|
E|----------------------------|x2

G|------------------------------------|
D|--------19------19------------------|
A|------------------------------------|
E|-X-17--------17----17-17-------17---|

2:15
G|----------------------------|
D|--------18------18----------|
A|----------------------------|
E|-X-16--------16----16-16----|x4

G|----------------------------|
D|--------19------19----------|
A|----------------------------|
E|-X-17--------17----17-17----|

G|----------------------------|
D|--------14------14----------|
A|----------------------------|
E|-X-12--------12----12-12----|

G|--------18------18----------|
D|----------------------------|
A|-X-16--------16----16-16----|
E|----------------------------|x2

G|-------16-------16----------|
D|----------------------------|
A|-X-14--------14----14-14----|
E|----------------------------|x2

2:43
G|----------------------------|
D|--------18------18----------|
A|----------------------------|
E|-X-16--------16----16-16----|x4

G|----------------------------|
D|--------19------19----------|
A|----------------------------|
E|-X-17--------17----17-17----|

G|----------------------------|
D|--------14------14----------|
A|----------------------------|
E|-X-12--------12----12-12----|


3:06  "is thinkingggggggggg....."
G|------|
D|------|
A|--14--|
E|------|

3:11
G|----------------------------|
D|--------18------18----------|
A|----------------------------|
E|-X-16--------16----16-16----|x2

G|----------------------------|
D|--------19------19----------|
A|----------------------------|
E|-X-17--------17----17-17----|x2

G|----------------------------|
D|--------18------18----------|
A|----------------------------|
E|-X-16--------16----16-16----|x2

G|----------------------------|
D|--------19------19----------|
A|----------------------------|
E|-X-17--------17----17-17----|x2

3:34
G|--------18------18----------|
D|----------------------------|
A|-X-16--------16----16-16----|
E|----------------------------|x2

G|----------------------------|
D|--------19------19----------|
A|----------------------------|
E|-X-17--------17----17-17----|x2

3:45
G|-------------------------------------------|
D|-------14------14--------------------------|
A|-----------------------------------12--14--| x2
E|--12--------12----12-12------X-12----------|

3:56
G|--------17------17----------|
D|----------------------------|
A|-X-15--------15----15-15----|
E|----------------------------|

G|--------16------16----------|
D|----------------------------|
A|-X-14--------14----14-14----|
E|----------------------------|

G|------------------------------------------|
D|--------19------19------------------------|
A|------------------------------------------|
E|-X-17--------17----17-17-------X-17---\19-|
            
Submit corrections

comments powered by Disqus
↑ Back to top | Radiohead Bass for Nude. Lyrics for acoustic guitar and electric guitar. Tablatures and chords are parodies/interpretations of the original songs. You may use it for private study, scholarship, research or language learning purposes only