>
 >
Nude

Nude Guitar Tabs

Radiohead - Nude chords, tabs, tablatures, lyrics

Guitar lessons | Add/correct | Request | Top 50 tabs Artists:  A B C D E F G H I J K L M N O P Q R S T U V W X Y Z 0-9

Nude Guitar Tabs – Radiohead

CD, Sheet music, Poster

Do you like Nude? Share with your friends now
Bass TabsBass Tabs v2ChordsChords v2Chords v3Chords v4Chords v5TabsTabs v2Ukulele
----------------------------------------------------------------------------
                           Radiohead-nude
----------------------------------------------------------------------------

Satandard tuning

(1:02)
Guitar 1
e-----17~--16\11~---------------------------|
B-------------------------------------------|
G-------------------------------------------|
D-------------------------------------------|
A-------------------------------------------|
E-------------------------------------------|
|
|
|Guitar 2 with E-Bow
e--------------------------------------------|
B---------------------10~--9\4~--------------|
G--------------------------------------------|
D--------------------------------------------|
A--------------------------------------------|
E--------------------------------------------|


(1:13)
Guitar 1
e-------4-----------4-----------4-----------4-----|
B-----4---4-------4---4-------4---4-------4---4---|
G---4-------4---4-------4---5-------5---5-------5-|
D-------------------------------------------------|
A-------------------------------------------------|
E-4-----------4-----------4-----------4-----------|

e-------5-----------0-----------9-----------9----------7-----------7-----|
B-----5---5-------0---0-------9---9-------9---9------7---7-------7---7---|
G---6-------6---1-------1---9-------9---9-------9--8-------8---8-------8-|
D------------------------------------------------------------------------|
A------------------------------------------------------------------------|
E-5-----------0-----------9-----------9-----------7----------7-----------|


(1:42)
e----------------------------------------------7----------------7-------|
B----------7-5--4------4-----7-5--4------5----x---5-------5----x---5----|
G----4----x-------4----4----x-------4----6---x-------6----6---x-------6-|
D----6---x-----------------x----------------x----------------x----------|
A-------x-----------------x----------7----------------------------------|
E-4-----------------4-----------------5----------------5----------------|
|
|
|Guitar 3 acoustic (STRUM THESE CHORDS)
e-4----------------------------------5----------------------------------|
B-4----------------------------------5----------------------------------|
G-4----------------------------------6----------------------------------|
D-6----------------------------------7----------------------------------|
A-6----------------------------------7----------------------------------|
E-4----------------------------------5----------------------------------|

e----------------------------------------------7----------------7-------|
B----------7-5--4------4-----7-5--4------5----x---5-------5----x---5----|
G----4----x-------4----4----x-------4----6---x-------6----6---x-------6-|
D----6---x-----------------x----------------x----------------x----------|
A-------x-----------------x----------7----------------------------------|
E-4-----------------4-----------------5----------------5----------------|
|
|
|
e-4----------------------------------5----------------------------------|
B-4----------------------------------5----------------------------------|
G-4----------------------------------6----------------------------------|
D-6----------------------------------7----------------------------------|
A-6----------------------------------7----------------------------------|
E-4----------------------------------5----------------------------------|

e----------------------------9-----------------------------|
B-----------12---9-----9----x--12--9-----------------------|
G----9-----x--9--------9---x---------11-9~------9--------9-|
D----11---x---------------x------------------11-------11---|
A--------x-------------------------------------------------|
E-9----------------9---------------------------------------|
|
|
|
e-4-------------------------------------5-------------------|
B-5-------------------------------------5-------------------|
G-6-------------------------------------8-------------------|
D-6-------------------------------------7-------------------|
A-4-------------------------------------7-------------------|
E---------------------------------------5-------------------|


(2:42)
Guitar 1
e------4-----------4-----------4-----------4-------|
B-----4---4-------4---4-------4---4-------4---4----|
G---4-------4---4-------4---5-------5---5-------5--|
D--------------------------------------------------|
A--------------------------------------------------|
E-4-----------4-----------4-----------4------------|
|
|
|Guitar 2 (Not exact)
e---------------------------------------------|
B----4---4-4----4---4-4----4---4-4----4---4-4-|
G-4--4-4-4-4-4--4-4-4-4-5--5-5-5-5-5--5-5-5-5-|
D-6--6-6-6-6-6--6-6-6-6-6--6-6-6-6-6--6-6-6-6-|
A-6--6-6-6-6-6--6-6-6-6-6--6-6-6-6-6--6-6-6-6-|
E-4----4-----4----4-----4----4-----4----4-----|
|
|
|Guitar 3 (
e-4--4-4-4-4-4--4-4-4-4-4--4-4-4-4-4--4-4-4-4-|
B-4--4-4-4-4-4--4-4-4-4-4--4-4-4-4-4--4-4-4-4-|
G-4--4-4-4-4-4--4-4-4-4-5--5-5-5-5-5--5-5-5-5-|
D-6--6-6-6-6-6--6-6-6-6-6--6-6-6-6-6--6-6-6-6-|
A-6--6-6-6-6-6--6-6-6-6-6--6-6-6-6-6--6-6-6-6-|
E-4--4-4-4-4-4--4-4-4-4-4--4-4-4-4-4--4-4-4-4-|


e-------5-----------0-------/9-------------------------|
B-----5---5-------0---0-----/9-------------------------|
G---6-------6---1-------1---/9-------------------------|
D---------------------------/11------------------------|
A------------------------------------------------------|
E-5-----------0-------------/9-------------------7~----|
|
|
|Guitar 2
e---------------------------------------------|
B----5---5-5----0-----------------------------|
G-6--6-6-6-6-1--1-----------------------------|
D-7--7-7-7-7-2--2-----------------------------|
A-7--7-7-7-7-2--2----------2/4~---------------|
E-5----5-----0----0---------------------------|
|
|
|Guitar
e-5--5-5-5-5-0--0-0-0-0--4--------------------|
B-5--5-5-5-5-0--0-0-0-0--5--------------------|
G-6--6-6-6-6-1--1-1-1-1--6--------------------|
D-7--7-7-7-7-2--2-2-2-2--6--------------------|
A-7--7-7-7-7-2--2-2-2-2--4--------------------|
E-5--5-5-5-5-0--0-0-0-0-----------------------|


(3:10)
e----------------------------------------------7----------------7-------|
B----------7-5--4------4-----7-5--4------5----x---5-------5----x---5----|
G----4----x-------4----4----x-------4----6---x-------6----6---x-------6-|
D----6---x-----------------x----------------x----------------x----------|
A-------x-----------------x----------7----------------------------------|
E-4-----------------4-----------------5----------------5----------------|
|
|
|Guitar 3 acoustic
e-4----------------------------------5----------------------------------|
B-4----------------------------------5----------------------------------|
G-4----------------------------------6----------------------------------|
D-6----------------------------------7----------------------------------|
A-6----------------------------------7----------------------------------|
E-4----------------------------------5----------------------------------|

e----------------------------------------------7----------------7-------|
B----------7-5--4------4-----7-5--4------5----x---5-------5----x---5----|
G----4----x-------4----4----x-------4----6---x-------6----6---x-------6-|
D----6---x-----------------x---------7------x----------------x----------|
A-------x-----------------x---------------------------------------------|
E-4-----------------4-----------------5----------------5----------------|
|
|
|
e-4----------------------------------5----------------------------------|
B-4----------------------------------5----------------------------------|
G-4----------------------------------6----------------------------------|
D-6----------------------------------7----------------------------------|
A-6----------------------------------7----------------------------------|
E-4----------------------------------5----------------------------------|

e----------------------------9--------------------------------|
B-----------12---9-----9----x--12--9--------------------------|
G----9-----x--9--------9---x---------11-9~------9------9------|
D----11---x---------------x------------------11---------11----|
A--------x-------------------------------------------------11-|
E-9----------------9------------------------------------------|
|
|
|
e-4-------------------------------------5-------------------|
B-5-------------------------------------5-------------------|
G-6-------------------------------------8-------------------|
D-6-------------------------------------7-------------------|
A-4-------------------------------------7-------------------|
E---------------------------------------5-------------------|





Comments


Popular Radiohead tabs & chords
The Gloaming 2 Bass Tabs
Blow Out Chords
Bones Chords
Everything In Its Right Place Chords
A Wolf At The Door Tabs
Climbing Up The Walls 1 Tabs
Last Flowers Intro Tabs
Planet Telex 1 Tabs
House Of Cards Chords Ukulele
Like Spinning Plates Live Ukulele


Song lyrics



↑ Back to top | Tablatures and chords are parodies/interpretations of the original songs. You may use it for private study, scholarship, research or language learning purposes only
© 2014 AZChords.com Contact us | Privacy policy | DMCA | Add/correct tabs | Request tabs | Top 50 tabs