» » »

Radiohead, Nude Bass tabs (ver.1)

Artists:  A B C D E F G H I J K L M N O P Q R S T U V W X Y Z # 

Nude Bass tabs (ver.1)

Radiohead Tabs
 Rating:
4/5 (4 votes)
Nude lessons Tabs too difficult? Try these video lessons and learn fast
                -------------------------------------------------------------------------------
			     NUDE - Radiohead - In_RaInbows
-------------------------------------------------------------------------------


Alright so I just listened to In Rainbows all the way through and it was glorious. Some
the bass parts are great and really easy so I tabbed one real quick. This is the basic
progression, listen to the song yourself for the timing, which is usually the trickiest 
of Radiohead bass lines.

Tuning:

G|-----13-----13------13-----13-----13---------13--------14----14-----14-----|
D|---------------------------------------------------------------------------|
A|--11----11------11-----11------11-----9--11-------12------12-----12--------|
E|---------------------------------------------------------------------------|

G|------14--------14----------9------9-----9---------18-------18-------18----|
D|---------------------------------------------------------------------------|
A|--12-------12-----------7------7------7-----7/16--------16------16---------|
E|---------------------------------------------------------------------------|

G|-------16--------16---------16---------------------------------------------|
D|---------------------------------------------------------------------------|
A|-14--------14--------14----------------------------------------------------|
E|---------------------------------------------------------------------------|

Well thats pretty much the whole song, but like I said listen for timing and   any
let me know.


| /  slide up
| \  slide down
| h  hammer-on
| p  pull-off
| ~  vibrato
| +  harmonic
| x  Mute note
===============================================================================
            
Submit corrections

comments powered by Disqus
↑ Back to top | Radiohead Bass for Nude. Lyrics for acoustic guitar and electric guitar. Tablatures and chords are parodies/interpretations of the original songs. You may use it for private study, scholarship, research or language learning purposes only