>
 >
Jigsaw Falling Into Place 1

Jigsaw Falling Into Place 1 Guitar Tabs

Radiohead - Jigsaw Falling Into Place 1 chords, tabs, tablatures, lyrics

Guitar lessons | Add/correct | Request | Top 50 tabs Artists:  A B C D E F G H I J K L M N O P Q R S T U V W X Y Z 0-9

Jigsaw Falling Into Place 1 Guitar Tabs – Radiohead

CD, Sheet music, Poster

Do you like Jigsaw Falling Into Place 1? Share with your friends now
Bass TabsChordsTabsTabs v2Ukulele
Okay, so this song is played with 3 different guitars, though I'm going to tab it 
with 5 because of the number of effects/distortion used.

Key:
/-slide forward
\-slide backward
b(n)-bend up n number of steps higher
<>-harmonic
x-mute with whichever hand isn't picking

Guitar 1 (Thom Yorke) D-A-D-F#-B-E (acoustic)
Guitar 2 (Jonny Greenwood) E-A-D-G-B-E (overdriven)
Guitar 3 (Ed O'Brien) E-A-D-G-B-E (clean, with E-Bow)
Guitar 4 (Jonny Greenwood) E-A-D-G-B-E (light distortion, probably a fuzz pedal)
Guitar 5 (Ed O'Brien) E-A-D-G-B-E (clean, with light delay and reverb)

Part A:

Guitar 1

-----------------------------------------------------------------------------|
-----------------------------------------------------------------------------|
-----8-----8---8-----8-----8---8-----8-----8---8-----8-----8---8-----7-----7-|
---9-----9---------9-----9---------9-----9---------9-----9---------8-----8---|
-----------------------------------------------------------------------------|
-9-----9-----9---9-----9-----9---9-----9-----9---9-----9-----9---8-----8-----|

-----------------------------------------------------------------------------|
-----------------------------------------------------------------------------|
---7-----7-----7---7-----7-----7---7-----7-----7---7-----7---7-----5---5-----|
-------8-----8---------8-----8---------8-----8-----------7---7-----7---7---0-|
-------------------------------------------------------0---------0-----------|
-8---8-----8-----8---8-----8-----8---8-----8-----8---0-----0---0-----0---5---|

----------------------------------------------------------------------------|
----------------------------------------------------------------------------|
-0-----5-----7-----7-----8---8-----0-----5-----7-----7-----8---8------------|
-----0-----0-----0-----0---------0-----0-----0-----0-----0------------------|
----------------------------------------------------------------------------|
---5-----5-----4-----4-----4---5-----5-----5-----4-----4-----4--------------|

Guitar 2

----------------------------------------------------------------------------|
----------------------------------------------------------------------------|
----<7b9>-----<7b9>---<7b9>-----<7b9>-----<7b9>---<7b9>-----<7b9>-----<7b9>-|
---x--------x-------x---------x---------x-------x---------x---------x-------|
--x--------x--------x--------x---------x--------x--------x---------x--------|
-x--------x---------x-------x---------x---------x-------x---------x---------|

-----------------------------------------------------------------------------|
-----------------------------------------------------------------------------|
---<7b9>-----<7b9>-----<7b9>---<7b9>-----<6b8>-----<6b8>---<6b8>-----<6b8>---|
-x---------x---------x-------x---------x---------x-------x---------x---------|
-x--------x---------x--------x--------x---------x--------x--------x----------|
-x-------x---------x---------x-------x---------x---------x-------x---------x-|

----------------------------------------------------------------------------|
----------------------------------------------------------------------------|
---<6b8>---<6b8>-----<6b8>-----<6b8>---<6b8>-----<6b8>-----<6b8>---<6b8>-x--|
-x-------x---------x---------x-------x---------x---------x-------x-------x--|
x--------x--------x---------x--------x--------x---------x--------x-------x--|
---------x-------x---------x---------x-------x---------x---------x-------x--|

----------------------------------------------------------------------------|
----------------------------------------------------------------------------|
-<6b8>x-<6b8>-x-<4b5>-x-<4b5>---------------<4b5>-----<6b7>-----<6b7>-7-7---|
------x-------x-------x---------x-<4b5>---x---------x---------x-------------|
------x-------x-------x--------x---------x---------x---------x--------------|
------x-------x-------x-------x---------x---------x---------x---------------|

Part B:

Guitar 1 (strum these all as chords. you can pick up the picking pattern from the song)

-0--0--0--0--0--0--0--0-----------------------------------------------------|
-0--0--0--0--0--0--0--0-----------------------------------------------------|
-8--7--7--5--5--7--5--7-----------------------------------------------------|
-9--8--7--7--0--0--0--0-----------------------------------------------------|
-x--x--0--0--x--x--x--x-----------------------------------------------------|
-9--8--0--0--5--4--5--4-----------------------------------------------------|

Guitar 3

----------------------------------------------------------------------------|
----------------------------------------------------------------------------|
-1/7\4--1/7/9\7\4--1/7\4-6/7\4--4/9\7-7\6\4---------------------------------|
----------------------------------------------------------------------------|
----------------------------------------------------------------------------|
----------------------------------------------------------------------------|

Part C:

Guitar 1 (again, these are all strummed as chords. follow the picking pattern of Guitar 
to get the feel of it)

-0--0--0--0--0--0--0--0--0--0--0--0-----------------------------------------|
-0--0--0--0--0--0--0--0--0--0--0--2-----------------------------------------|
-0--0--0--3--0--0--0--3--0--2--0--0-----------------------------------------|
-0--3--0--0--0--3--0--0--0--0--0--0-----------------------------------------|
-2--2--2--2--2--2--2--2--2--2--2--2-----------------------------------------|
----------------------------------------------------------------------------|

Guitar 4

----------------------------------------------------------------------------|
---------------------------------------------------------2-0----------------|
-------------------2-------------------2------------------------------------|
-0-0-0-0-0-0-0-3-4---0-0-0-0-0-0-0-3-4---0-0-0-0-0-0-4-6--------------------|
-2-2-2-2-2-2---------2-2-2-2-2-2---------2-2-2-2-2-2------------------------|
----------------------------------------------------------------------------|

Part D:

Guitar 1

----------------------------------------------------------------------------|
----------------------------------------------------------------------------|
----------------------------------------------------------------------------|
-5-5-5-5--4-4-4-4--2-0-2-0-2--4-4-4-4--2-0-2-0-2--7-7-7-7--5-5-5-5----------|
-x-x-x-x--x-x-x-x--x-x-x-x-x--x-x-x-x--x-x-x-x-x--x-x-x-x--x-x-x-x----------|
-5-5-5-5-\4-4-4-4-\2-2-2-2-2-/4-4-4-4-\2-2-2-2-2-/7-7-7-7-\5-5-5-5----------|

Guitar 4

----------------------------------------------------------------------------|
----------------------------------------------------------------------------|
----------------------------------------------------------------------------|
----------------------------------------------------------------------------|
---------------------------------------------0-0-0-0------------------------|
-3-3-3-3-2-2-2-2-0-0-0-0-0-2-2-2-2-0-0-0-0-0---------3-3-3-3----------------|

Guitar 5

----------------------------------------------------------------------------|
----------------------------------------------------------------------------|
-0-0-0-0-------------------------------------2-2-2-2-0-0-0-0----------------|
---------4-4-4-4-2-0-2-0-2-4-4-4-4-2-0-2-0-2--------------------------------|
----------------------------------------------------------------------------|
----------------------------------------------------------------------------|

Part E:

Guitar 1 (once again, these are all chords)

-0--0--0--0-----------------------------------------------------------------|
-0--0--0--0-----------------------------------------------------------------|
-3--0--3--3-----------------------------------------------------------------|
-4--4--4--2-----------------------------------------------------------------|
-2--2--2--2-----------------------------------------------------------------|
-2--2--2--2-----------------------------------------------------------------|

Guitar 5

----------------------------------------------------------------------------|
------12--------------------------------------------------------------------|
---12-----------------------------------------------------------------------|
-9--------------------------------------------------------------------------|
----------------------------------------------------------------------------|
----------------------------------------------------------------------------|

Order: A, B, C, D, E, B





Comments


Popular Radiohead tabs & chords
A Punch-Up At The Wedding 1 Bass Tabs
Exit Music For A Film Bass Tabs
Inside My Head 1 Bass Tabs
Street Spirit 2 Bass Tabs
The Bends 3 Bass Tabs
Climbing Up The Walls 1 Chords
The Bends 1 Chords
15 Step 2 Tabs
Pulkpull Revolving Doors Tabs
The Bends 2 Tabs


Song lyrics



↑ Back to top | Tablatures and chords are parodies/interpretations of the original songs. You may use it for private study, scholarship, research or language learning purposes only
© 2014 AZChords.com Contact us | Privacy policy | DMCA | Add/correct tabs | Request tabs | Top 50 tabs