>
 >
Jigsaw Falling Into Place

Jigsaw Falling Into Place Guitar Tabs

Radiohead - Jigsaw Falling Into Place chords, tabs, tablatures, lyrics

Guitar lessons | Add/correct | Request | Top 50 tabs Artists:  A B C D E F G H I J K L M N O P Q R S T U V W X Y Z 0-9

Jigsaw Falling Into Place Guitar Tabs – Radiohead

CD, Sheet music, Poster

Do you like Jigsaw Falling Into Place? Share with your friends now
Bass TabsChordsTabsTabs v2Ukulele
-------------------------------------------------------------------------------
-------------------------------------------------------------------------------

It is my firm belief that this song, originally called "open pick", was called
this because the tuning allows for an almost open picking scheme in the key of D - 
you can pick pretty much any string that you want and it will fit into the song which
adds to its many intricacies. It is also my firm belief that someone needs
to REALLY tab this song. This is the acoustic guitar part - hopefully I will add
the electric guitar parts later. Enjoi.

this tab is seperated into 4/4 bars when counting very fast - around 155 bpm.
Also, the point of the song is to throw your hands around a bit to get other nuances 
in there - this is a rough outline, but the sequence of the notes should give the
gist of the song. I prefer to finger pick but whatevaz.

Tuning:DADGBd

INTRO:

d|-----------------|-----------------|-----------------|-----------------|
B|-----------------|-----------------|-----------------|-----------------|
G|-----7-----7---7-|-----7-----7---7-|-----7-----7---7-|-----7-----7---7-|
D|---9-----9-----9-|---9-----9-----9-|---9-----9-9---9-|---9-----9-9---9-|
A|-----------------|-----------------|-----------------|-----------------|
D|-9-----9-----9---|-9-----9-----9---|-9-----9-----9---|-9-----9-----9---|

d|-----------------|-----------------|-----------------|-----------------|
B|-----------------|-----------------|-----------------|-----------------|
G|\----6-----6---6-|-----6-----6---6-|-----6-----6---6-|---4---4---------|
D|\--8-----8-----8-|---8-----8-----8-|---4-----4-----4-|---4---4---------|
A|-----------------|-----------------|-----------------|-----------------|
D|\8-----8-----8---|-8-----8-----8---|-0-----0-----0---|-0---0---------4/|

d|--------------|--------------|--------------|--------------|
B|--------------|--------------|--------------|--------------|
G|----------4---|---6---6--/7--|----------4---|---6---6--/7--|
D|----4---4-4---|---4---4---4--|----4---4-4---|---4---4---4--|
A|--5-5---------|--------------|--5-5---------|--------------|
D|5-----5-----5-|-4---4---4---4|5-----5-----5-|-4---4---4----|

INTRO TO VERSE THEME A (17 sec):

d|-----0-----0---0-|-----0-----0---0-|-----0-----0---0-|-----0-----0---0-|
B|-----0-----0---0-|-----0-----0---0-|-----0-----0---0-|-----0-----0---0-|
G|-----7-----7---7-|-----7-----7---7-|-----7-----7---7-|-----7-----7---7-|
D|---9-----9-----9-|---9-----9-----9-|---9-----9-----9-|---9-----9-----9-|
A|-----------------|-----------------|-----------------|-----------------|
D|-9-----9-----9---|-9-----9-----9---|-9-----9-----9---|-9-----9-----9---|

d|-----0-----0---0-|-----0-----0---0-|-----0-----0---0-|---0---0---------|
B|-----0-----0---0-|-----0-----0---0-|-----0-----0---0-|---0---0---------|
G|\----6-----6---6-|-----6-----6---6-|-----6-----6---6-|---4---4---------|
D|\--8-----8-----8-|---8-----8-----8-|---4-----4-----4-|---4---4---------|
A|-----------------|-----------------|-----------------|-----------------|
D|\8-----8-----8---|-8-----8-----8---|-0-----0-----0---|-0---0---------4/|

**the open d and B strings in the slide down portion after the intro are
definitely in the song, as discordant as they sound. leave them out if
they sound too funny to you.

d|----0-----0---|---0---0------|----0-----0---|---0---0---0--|
B|----0-----0---|---0---0------|----0-----0---|---0---0---0--|
G|----------4---|---6---6--/7--|----------4---|---6---6--/7--|
D|----4---4-4---|---4---4---4--|----4---4-4---|---4---4---4--|
A|--5-5---------|--------------|--5-5---------|--------------|
D|5-----5-----5-|-4---4---4---4|5-----5-----5-|-4---4---4----|



VERSE THEME A (34 secs):

this can be played with any picked variation of the chord in parentheses, since
the patterns change so often.

d|(0)|----0-----0---0-|-----0-----0---0-|-----0-0-0----|-----0-----0---0-|
B|(0)|----0-----0---0-|-----0-----0---0-|-----0-0-0-0--|-----0-----0---0-|
G|(7)|----7-----7---7-|-----7-----7---7-|--------------|-----7-----7---7-|
D|(9)|--9-----9-----9-|---9-----9-----9-|---------7-9--|---9-----9-----9-|
A|(9)|----------------|-----------------|-5-\-7-9------|-----------------|
D|(9)|-9-----9-----9--|-9-----9-----9---|-0---0---0----|-9-----9-----9---|

d|(0)|----0-----0---0-|-----0-----0---0-|-----0-0-0----|-----0-----0---0-|
B|(0)|----0-----0---0-|-----0-----0---0-|-----0-0-0-0--|-----0-----0---0-|
G|(7)|----7-----7---7-|-----7-----7---7-|--------------|-----7-----7---7-|
D|(9)|--9-----9-----9-|---9-----9-----9-|---------7-9--|---9-----9-----9-|
A|(9)|----------------|-----------------|-5-\-7-9------|-----------------|
D|(9)|-9-----9-----9--|-9-----9-----9---|-0---0---0----|-9-----9-----9---|



d|-0---0--/--0---0---|-0-----------|-----------------|-----------|
B|-0---0--/--0---0---|-0-----------|-----------------|-----------|
G|-4---4--/--2---2---|-2-------0---|-0-/-2-\-0-----0-|-2-----0---|
D|-5---5--/--4---4---|-4-p-0-h-2---|-2-/-4-\-2--0--2-|-4--0--2---|
A|(5)-(5)-/-(4)-(4)--|-4-p-0-h-2---|-2-/-4-\-2--0--2-|-4--0--2---|
D|-5---5--/--4---4---|-4-p-0-h-2---|-2-/-4-\-2--0--2-|-4--0--2---|

d|-0---0--/--0---0---|-0-----------|-----------------|-----------|
B|-0---0--/--0---0---|-0-----------|-----------------|-----------|
G|-6---6--/--4---4---|-2---4---0---|-0-/-2-\-0-----0-|-2-----0---|
D|-7---7--/--5---5---|-4-p-5-h-2---|-2-/-4-\-2--0--2-|-4--0--2---|
A|(7)-(7)-/-(5)-(5)--|-4-p-5-h-2---|-2-/-4-\-2--0--2-|-4--0--2---|
D|-7---7--/--5---4---|-4-p-5-h-2---|-2-/-4-\-2--0--2-|-4--0--2---|


d|(0)|----0-----0---0-|-----0-----0---0-|-----0-0-0----|-----0-----0---0-|
B|(0)|----0-----0---0-|-----0-----0---0-|-----0-0-0-0--|-----0-----0---0-|
G|(7)|----7-----7---7-|-----7-----7---7-|--------------|-----7-----7---7-|
D|(9)|--9-----9-----9-|---9-----9-----9-|---------7-9--|---9-----9-----9-|
A|(9)|----------------|-----------------|-5-\-7-9------|-----------------|
D|(9)|-9-----9-----9--|-9-----9-----9---|-0---0---0----|-9-----9-----9---|

Just as you take my hand.....Just as you write my number down

d|(0)|----0-----0---0-|-----0-----0---0-|-----0-0-0----|-----0-----0---0-|
B|(0)|----0-----0---0-|-----0-----0---0-|-----0-0-0-0--|-----0-----0---0-|
G|(7)|----7-----7---7-|-----7-----7---7-|--------------|-----7-----7---7-|
D|(9)|--9-----9-----9-|---9-----9-----9-|---------7-9--|---9-----9-----9-|
A|(9)|----------------|-----------------|-5-\-7-9------|-----------------|
D|(9)|-9-----9-----9--|-9-----9-----9---|-0---0---0----|-9-----9-----9---|

Just as the drinks arrive...just as they play your favorite song


d|-0---0--/--0---0---|-0-----------|-----------------|-----------|
B|-0---0--/--0---0---|-0-----------|-----------------|-----------|
G|-4---4--/--2---2---|-2-------0---|-0-/-2-\-0-----0-|-2-----0---|
D|-5---5--/--4---4---|-4-p-0-h-2---|-2-/-4-\-2--0--2-|-4--0--2---|
A|(5)-(5)-/-(4)-(4)--|-4-p-0-h-2---|-2-/-4-\-2--0--2-|-4--0--2---|
D|-5---5--/--4---4---|-4-p-0-h-2---|-2-/-4-\-2--0--2-|-4--0--2---|

As the magic disappears...          No longer wound up like a spring

d|-0---0--/--0---0---|-0-----------|-----------------|-----------|
B|-0---0--/--0---0---|-0-----------|-----------------|-----------|
G|-6---6--/--4---4---|-2---4---0---|-0-/-2-\-0-----0-|-2-----0---|
D|-7---7--/--5---5---|-4-p-5-h-2---|-2-/-4-\-2--0--2-|-4--0--2---|
A|(7)-(7)-/-(5)-(5)--|-4-p-5-h-2---|-2-/-4-\-2--0--2-|-4--0--2---|
D|-7---7--/--5---4---|-4-p-5-h-2---|-2-/-4-\-2--0--2-|-4--0--2---|

Before you're had too much...      come back and focus again


d|(0)|----0-----0---0-|-----0-----0---0-|-----0-0-0----|-----0-----0---0-|
B|(0)|----0-----0---0-|-----0-----0---0-|-----0-0-0-0--|-----0-----0---0-|
G|(7)|----7-----7---7-|-----7-----7---7-|--------------|-----7-----7---7-|
D|(9)|--9-----9-----9-|---9-----9-----9-|---------7-9--|---9-----9-----9-|
A|(9)|----------------|-----------------|-5-\-7-9------|-----------------|
D|(9)|-9-----9-----9--|-9-----9-----9---|-0---0---0----|-9-----9-----9---|

The walls abandon shape....You've got a cheshire cat grin

d|(0)|----0-----0---0-|-----0-----0---0-|-----0-0-0----|-----0-----0---0-|
B|(0)|----0-----0---0-|-----0-----0---0-|-----0-0-0-0--|-----0-----0---0-|
G|(7)|----7-----7---7-|-----7-----7---7-|--------------|-----7-----7---7-|
D|(9)|--9-----9-----9-|---9-----9-----9-|---------7-9--|---9-----9-----9-|
A|(9)|----------------|-----------------|-5-\-7-9------|-----------------|
D|(9)|-9-----9-----9--|-9-----9-----9---|-0---0---0----|-9-----9-----9---|

All blurring into one....this place is on a mission

d|-0---0--/--0---0---|-0-----------|-----------------|-----------|
B|-0---0--/--0---0---|-0-----------|-----------------|-----------|
G|-4---4--/--2---2---|-2-------0---|-0-/-2-\-0-----0-|-2-----0---|
D|-5---5--/--4---4---|-4-p-0-h-2---|-2-/-4-\-2--0--2-|-4--0--2---|
A|(5)-(5)-/-(4)-(4)--|-4-p-0-h-2---|-2-/-4-\-2--0--2-|-4--0--2---|
D|-5---5--/--4---4---|-4-p-0-h-2---|-2-/-4-\-2--0--2-|-4--0--2---|

Before the night owl.... before the animal noises

d|-0---0--/--0---0---|-0-----------|-----------------|-----------|
B|-0---0--/--0---0---|-0-----------|-----------------|-----------|
G|-6---6--/--4---4---|-2---4---0---|-0-/-2-\-0-----0-|-2-----0---|
D|-7---7--/--5---5---|-4-p-5-h-2---|-2-/-4-\-2--0--2-|-4--0--2---|
A|(7)-(7)-/-(5)-(5)--|-4-p-5-h-2---|-2-/-4-\-2--0--2-|-4--0--2---|
D|-7---7--/--5---4---|-4-p-5-h-2---|-2-/-4-\-2--0--2-|-4--0--2---|

Closed circuit cameras...Before you're comatose...



BRIDGE (1:44):

(i wrote out full chord shapes for the strumming here - accentuate the 
climb in notes from the D string to get the effect the song has, and
fall on the other strings in the chord to fill out the bridge.)

d|-0--0--0--0-|-0--0--0--0-|-0--0--0--0-|-0--0--0--0-|
B|-0--0--0--0-|-0--0--0--0-|-0--0--0--0-|-0--0--0--0-|
G|-4--4--4--4-|-4--4--4--4-|-4--4--4--4-|-4--4--4--4-|
D|-4--4--4--4-|-4--4--0--4-|-4--4--4--4-|-4--4--0--4-|
A|-5--5--5--5-|-5--5--5--0-|-2--5--5--5-|-5--5--5--0-|
D|-0--0--0--0-|-0--2--4--0-|-0--0--0--0-|-0--2--4--0-|


d|-0--0--0--0-|-0--0--0--0-|-0--0--0--0-|-0--0--0--0-|
B|-0--0--0--0-|-0--0--0--0-|-0--0--0--0-|-0--0--0--0-|
G|-4--4--4--4-|-4--4--4--4-|-4--4--4--4-|-4--4--4--4-|
D|-4--4--4--4-|-4--4--0--4-|-4--4--4--4-|-4--4--0--X-|
A|-2--5--5--5-|-5--5--5--0-|-2--5--5--5-|-5--5--4--5-|
D|-0--0--0--0-|-0--2--4--0-|-0--0--0--0-|-0--2--0--0-|


d|-0--0--0--0-|-0--0--0--0-|-0--0--0--0-|-0--0--0--0-|
B|-0--0--0--0-|-0--0--0--0-|-0--0--0--0-|-0--0--0--0-|
G|-4--4--4--4-|-4--4--4--4-|-4--4--4--4-|-4--4--4--4-|
D|-4--4--4--4-|-4--4--4--4-|-4--4--4--4-|-4--4--0--4-|
A|-2--0--0--0-|-0--2--0--0-|-5--5--5--5-|-5--5--0--0-|
D|-0--0--0--0-|-0--0--3--2-|-0--0--0--0-|-0--2--4--0-|


d|-0--0--0--0-|-0--0--0--0-|-0--0--0--0-|-0--0--0--0-|
B|-0--0--0--0-|-0--0--0--0-|-0--0--0--0-|-0--0--0--0-|
G|-4--4--4--4-|-4--4--4--4-|-4--4--4--4-|-4--4--4--4-|
D|-4--4--4--4-|-4--4--0--4-|-4--4--4--4-|-4--4--0--X-|
A|-2--5--5--5-|-5--5--5--0-|-2--5--5--5-|-5--5--4--5-|
D|-0--0--0--0-|-0--2--4--0-|-0--0--0--0-|-0--2--0--0-|


REPEAT VERSE THEME A X2 (2:07)

Before you run away from me
Before you're lost between the notes
The beat goes round and round
THE BEAT GOES ROUND AND ROUND

I never really got there
I just pretended that I had
What's the point of instruments
Words are a sawed off shotgun

Come on and let it out
Come on and let it out
Come on and let it out
Come on and let it out

Before you run away from me
Before you're lost between the notes
Just as you take the mic
Just as you dance

INTRO TO VERSE B (2:54):

(this is the gist of it. THROW YOUR HANDS AROUND!!! There is also another 
acoustic guitar playing along with the strings)


d|-0---------0-----|---0-------0-----|---0-------0-----|-0---=-----0-----|
B|---0---------0---|-----0-------0---|-----0-------0-0-|---0-0-------0-0-|
G|-7---7-----7---7-|-----7-----7---7-|-----7-----7---7-|-----7-----7---7-|
D|---9-----9-----9-|---9-----9-----9-|---9-----9-----9-|---9-----9-----9-|
A|-----------------|-----------------|-----------------|-----------------|
D|-9-----9-----9---|-9-----9-----9---|-9-----9-----9---|-9-----9-----9---|


d|-----0-0---0---0-|-----0-----0---0-|-----0-----0---0-|---0---0---------|
B|-----0-0---0---0-|-----0-----0---0-|-----0-----0---0-|---0---0---------|
G|\----6-----6---6-|-----6-----6---6-|-----6-----6---6-|---4---4---------|
D|\--8-----8-----8-|---8-----8-----8-|---4-----4-----4-|---4---4---------|
A|-----------------|-----------------|-----------------|-----------------|
D|\8-----8-----8---|-8-----8-----8---|-0-----0-----0---|-0---0---------4/|


d|----0-----0---|---0---0------|0---0-----0---|-0-0---0---0--|
B|----0-----0---|---0---0-----0|0---0-----0---|-0-0---0---0--|
G|----------4---|---6---6--/7--|----------4---|---6---6--/7--|
D|----4---4-4---|---4---4---4--|----4---4-4---|---4---4---4--|
A|--5-5---------|--------------|--5-5---------|--------------|
D|5-----5-----5-|-4---4---4---4|5-----5-----5-|-4---4---4----|


VERSE B:

d|-0---------0-----|---0-------0-----|---0-------0-----|-0---=-----0-----|
B|---0---------0---|-----0-------0---|-----0-------0-0-|---0-0-------0-0-|
G|-7---7-----7---7-|-----7-----7---7-|-----7-----7---7-|-----7-----7---7-|
D|---9-----9-----9-|---9-----9-----9-|---9-----9-----9-|---9-----9-----9-|
A|-----------------|-----------------|-----------------|-----------------|
D|-9-----9-----9---|-9-----9-----9---|-9-----9-----9---|-9-----9-----9---|

Jigsaw falling into place....There is nothing to explain


d|-----0-0---0---0-|-----0-----0---0-|-----0-----0---0-|---0---0---------|
B|-----0-0---0---0-|-----0-----0---0-|-----0-----0---0-|---0---0---------|
G|\----6-----6---6-|-----6-----6---6-|-----6-----6---6-|---4---4---------|
D|\--8-----8-----8-|---8-----8-----8-|---4-----4-----4-|---4---4---------|
A|-----------------|-----------------|-----------------|-----------------|
D|\8-----8-----8---|-8-----8-----8---|-0-----0-----0---|-0---0---------4/|

Regard eachother as you pass... She looks back You look back


d|----0-----0---|---0---0------|0---0-----0---|-0-0---0---0--|
B|----0-----0---|---0---0-----0|0---0-----0---|-0-0---0---0--|
G|----------4---|---6---6--/7--|----------4---|---6---6--/7--|
D|----4---4-4---|---4---4---4--|----4---4-4---|---4---4---4--|
A|--5-5---------|--------------|--5-5---------|--------------|
D|5-----5-----5-|-4---4---4---4|5-----5-----5-|-4---4---4----|

Not just once...                Not just twice...


 
d|-0---------0-----|---0-------0-----|---0-------0-----|-0---=-----0-----|
B|---0---------0---|-----0-------0---|-----0-------0-0-|---0-0-------0-0-|
G|-7---7-----7---7-|-----7-----7---7-|-----7-----7---7-|-----7-----7---7-|
D|---9-----9-----9-|---9-----9-----9-|---9-----9-----9-|---9-----9-----9-|
A|-----------------|-----------------|-----------------|-----------------|
D|-9-----9-----9---|-9-----9-----9---|-9-----9-----9---|-9-----9-----9---|

Wish away the nightmare....           Wish away the nightmare...


d|-----0-0---0---0-|-----0-----0---0-|-----0-----0---0-|---0---0---------|
B|-----0-0---0---0-|-----0-----0---0-|-----0-----0---0-|---0---0---------|
G|\----6-----6---6-|-----6-----6---6-|-----6-----6---6-|---4---4---------|
D|\--8-----8-----8-|---8-----8-----8-|---4-----4-----4-|---4---4---------|
A|-----------------|-----------------|-----------------|-----------------|
D|\8-----8-----8---|-8-----8-----8---|-0-----0-----0---|-0---0---------4/|

You've gotta run/You've gotta light     You can feel it on your back

d|----0-----0---|---0---0------|0---0-----0---|-0-0---0---0--|
B|----0-----0---|---0---0-----0|0---0-----0---|-0-0---0---0--|
G|----------4---|---6---6--/7--|----------4---|---6---6--/7--|
D|----4---4-4---|---4---4---4--|----4---4-4---|---4---4---4--|
A|--5-5---------|--------------|--5-5---------|--------------|
D|5-----5-----5-|-4---4---4---4|5-----5-----5-|-4---4---4----|

Jigsawww falling...             into placee...


OUTRO (3:47):

d|(0)|----0-----0---0-|-----0-----0---0-|-----0-0-0----|-----0-----0---0-|
B|(0)|----0-----0---0-|-----0-----0---0-|-----0-0-0-0--|-----0-----0---0-|
G|(7)|----7-----7---7-|-----7-----7---7-|--------------|-----7-----7---7-|
D|(9)|--9-----9-----9-|---9-----9-----9-|---------7-9--|---9-----9-----9-|
A|(0)|----------------|-----------------|-5-\-7-9------|-----------------|
D|(9)|-9-----9-----9--|-9-----9-----9---|-0---0---0----|-9-----9-----9---|

d|(0)|----0-----0---0-|-----0-----0---0-|-----0-0-0----|-----0-----0---0-|
B|(0)|----0-----0---0-|-----0-----0---0-|-----0-0-0-0--|-----0-----0---0-|
G|(7)|----7-----7---7-|-----7-----7---7-|--------------|-----7-----7---7-|
D|(9)|--9-----9-----9-|---9-----9-----9-|---------7-9--|---9-----9-----9-|
A|(0)|----------------|-----------------|-5-\-7-9------|-----------------|
D|(9)|-9-----9-----9--|-9-----9-----9---|-0---0---0----|-9-----9-----9---|

You can finger pick the chord in parentheses to any pattern your heart desires,
but if you want to play the loop-sounding pattern, it is displayed below:


d|-----------------|------------------|------------------|------------------|
B|-0-----0-----0---|--0-----0-----0---|--0-----0-----0---|--0-----0-----0---|
G|-----------------|------------------|------------------|------------------|
D|---7-----7-----7-|----7-----7-----7-|----7-----7-----7-|----7-----7-----7-|
A|-----------------|------------------|------------------|------------------|
D|-----9-----9-----|9-----9-----9-----|9-----9-----9-----|9-----9-----9-----|



PLAY ON!!!!




| /  slide up
| \  slide down
| h  hammer-on
| p  pull-off
| ~  vibrato
| +  harmonic
| x  Mute note
===============================================================================





Comments


Popular Radiohead tabs & chords
I Might Be Wrong 2 Bass Tabs
House Of Cards 3 Chords
The Present Tense Chords
Climbing Up The Walls Tabs
How I Made My Millions Tabs
Just Tabs
Knives Out Tabs
Lewis (Mistreated) Tabs
Talk Show Host 1 Tabs
Polyethylene Ukulele


Song lyrics



↑ Back to top | Tablatures and chords are parodies/interpretations of the original songs. You may use it for private study, scholarship, research or language learning purposes only
© 2014 AZChords.com Contact us | Privacy policy | DMCA | Add/correct tabs | Request tabs | Top 50 tabs