» » »

Radiohead, Jigsaw Falling Into Place Bass tabs (ver.1)

Artists:  A B C D E F G H I J K L M N O P Q R S T U V W X Y Z # 

Jigsaw Falling Into Place Bass tabs (ver.1)

Radiohead Tabs
 Rating:
4/5 (4 votes)
Jigsaw Falling Into Place lessons Tabs too difficult? Try these video lessons and learn fast
                -------------------------------------------------------------------------------
                      JIGSAW FALLING INTO PLACE - RADIOHEAD
-------------------------------------------------------------------------------



Tuning: Standard
  0:17
G|---4-----------------------------------------------------------------------|
D|---------------------------------------------------------------------------|
A|-2---22-2-2-2-2-22-2-22-2-2-2-2-1-11-11-11-1-1/5-5-55-5-5-5-5-5\-----------|
E|----------------------------------------------------------------3-3-33-2-2-|

G|---------------------------------------------------------------------------|
D|---------------------------------------------------------------------------|
A|------------------------5\2-2-2-02-2-022-02-2-2-2-21-5\2-2-2-02-2-022-02-2-|
E|-2-2-2-3-3-33-2-2-2-222----------------------------------------------------|

G|---------------------------------------------------------------------------|
D|----------------------------------------2----------------------------------|
A|-2-2-2---------------------------------------------------------------------|
E|-------3-3-33-2-22-0-00-0-0-0h2-0-0-0-00-0-0-0-5-5-33-2-32-0-0-0h2-0-0-0-0-|

G|---------------------------------------------------------------------------|
D|---------------------------------------------------------------------------|
A|-5\2-2-2-02-2-022-02-2-2-2-21-5\2-2-2-02-2-022-02-2-2-2--------------------|
E|--------------------------------------------------------3-3-33-2-22-0-00-0-|

G|---------------------------------------------------------------------------|
D|---5-5-44-4-4-4-2-222-2-2-2-7-7-55-4-542-2-2-2h4-2-2-2-2-2-----------------|
A|-----------------------------------------------------------5\2-2-2-02-2-02-|
E|-0-------------------------------------------------------------------------|

G|---------------------------------------------------------------------------|
D|------------------------------------------------------------7-7-55-4-542-2-|
A|-2-2-2-02-5\2-2-2-02-2-022-02-2-2-2----------------------------------------|
E|------------------------------------3-3-33-2-22-0-00-0-0-00----------------|

G|-------------------------------4----------------4--------------4-----------|
D|-2-2h4-2-2-2-2-2-----------4-7--------------4-7------------4-7-------------|
A|-----------------5-5-4-5-7-------5-55-4-5-7-------554545-7-------55454-5-5-|
E|---------------------------------------------------------------------------|


G|-4-6-7-4---------------4----------------4--------------4-----------4-6-7-4-|
D|-------------------4-7--------------4-7------------4-7---------------------|
A|---------5-5-4-5-7-------5-55-4-5-7-------554545-7-------55454-5-5---------|
E|---------------------------------------------------------------------------|

G|---------------------------------------------------------------------------|
D|---------------------------------------------------------------------------|
A|-5\2-2-2-02-2-022-02-2-2-2-21-5\2-2-2-02-2-022-02-2-2-2--------------------|
E|--------------------------------------------------------3-3-33-2-22-0-00-0-|

G|---------------------------------------------------------------------------|
D|-7-7-55-4-542-2-2-2h4-2-2-2-2-2--------------------------------------------|
A|--------------------------------5\2-2-2-02-2-022-02-2-2-2-21-5\2-2-2-02-2-2|
E|---------------------------------------------------------------------------|

G|---------------------------------------------------------------------------|
D|-5-5-44-4-4-4-2-22h4-2-2h4-2-7-7-55-4-542-2-2-2h4-2-2-2-2------------------|
A|---------------------------------------------------------------------------|
E|---------------------------------------------------------------------------|

G|---4-----------------------------------------------------------------------|
D|---------------------------------------------------------------------------|
A|-2---22-2-2-2-21-221-2-212-2-2-2-2-1-11-11-11-1-1/5-5-55-5-5-5-5-5\--------|
E|-------------------------------------------------------------------3-3-33-2|

G|-------------------------4------4--------4---------------------------------|
D|--4-----5--------4---------------------------------------------------------|
A|------------------------2-2-2-02-2-022-02-2-2-2-2\5-1-1-11-0101-11-1-1/542-|
E|-2-2-2-3-3-33-2-2-2-222----------------------------------------------------|

G|---------------------------------------------------------------------------|
D|---------------------------------------------------------------------------|
A|-2-2-22-4-5-------------------------------22-2-2-2-2542-221-2-245-4-5-4-54-|
E|------------3-3-333-2-2-222-3-3-33-2-2-22----------------------------------|

G|---------------------------------------------------------------------------|
D|---------------------------------------------------------------------------|
A|-11-1-1-1-1-5-55-55-5-5-5----------------------------5\2-2-2-02-2-022-02-2-|
E|--------------------------3-3-33-22-22-33-33-2-2-2-2-----------------------|

G|---------------------------------------------------------------------------|
D|---------------------------------------------------------------------------|
A|-2-02-2-2-2-5\2-2-2-02-2-022-02-2-02-2-3-2-0-2-----------------------------|
E|---------------------------------------------------------------------------|

| /  slide up
| \  slide down
| h  hammer-on
| p  pull-off
| ~  vibrato
| +  harmonic
| x  Mute note

Definitely not note for note but as far as I can tell, it's fairly accurate. Greenwood 
a bit here and there so that's an easy fix. Another thing: the timing bits are 
educated guesses; I just went with what I knew.

Great song, happy playing.
===========================================================================
            
Submit corrections

comments powered by Disqus
↑ Back to top | Radiohead Bass for Jigsaw Falling Into Place. Lyrics for acoustic guitar and electric guitar. Tablatures and chords are parodies/interpretations of the original songs. You may use it for private study, scholarship, research or language learning purposes only