» » »

Radiohead, Go Slowly Tabs (ver.2)

Artists:  A B C D E F G H I J K L M N O P Q R S T U V W X Y Z # 

Go Slowly Tabs (ver.2)

Radiohead Tabs
Rating:
0/5 (0 votes)
Go Slowly lessons Tabs too difficult? Try these video lessons and learn fast
                NOTE: This song's lyrics are notoriously disputed amongst fans. The lyrics denoted here 
necessarily correct and are included just for the purposes of notation.


INTRO

Bm    Em
G     F#m
Em

(repeat twice)
-

VERSE 1

Bm   Em
Over here

G            F#m
Come slowly, come slowly

Em
to me


Bm   Bm
I've been waiting

G       F#m
patient patient-

Em
-ly


Bm    E
I     didn't get it

G        F#m
But now, I

Em
can see.


BRIDGE

An approximate tab of the bridge riff, with chords:


  H        E  E  E  E     E  E  E  E    E   E  Q
--7--------5--7-----0--|--L-------------------------|
--0--------0--0-----5--|--L-----5-----5g7p--0--0----|
--7--------7--7-----7--|--L--7--7--7--------7--7----|
--0--------------0--0--|--L--0-----0--------0--0----|
--0--------------------|----------------------------|
--7--------------------|----------------------------| x2

Bm


  H        E  E  E  E     E  E  E  E    E   E  Q
--7--------5--7-----0--|--L-------------------------|
--0--------0--0-----5--|--L-----5-----5g7p--0--0----|
--7--------7--7-----7--|--L--7--7--7--------7--7----|
--0--------------0--0--|--L--0-----0--------0--0----|
--7--------------------|----------------------------|
--0--------------------|----------------------------|

Em

   E  E  E  E  E  E  E  E     E  E  E  E  E  E  E  E
|--3--2-----3--2-----3--2--|-----3--2-----3--2--0-----|
|--3--3-----3--3-----3--3--|-----3--3-----3--3--3--3--|
|--0--0--0--0--0--0--0--0--|--0--0--0--0--0--0--0--0--|
|--0--0--0--0--0--0--0--0--|--0--0--0--0--0--0--0--0--|
|--x-----------------------|--------------------------|
|--3-----------------------|--------------------------|

G

   E  E  E  E  E  E  E  E     E  E  E  E  E  E  E  E
|-----------------------0--|--L--0--0--0--0--0--0--0--||
|--------------------2--2--|--L--2--2--2--2--2--2--2--||
|--------------3--3--3--3--|--L--3--3--3--3--3--3--3--||
|--4--4--4--4--4--4--4--4--|--L--4--4--4--4--4--4--4--||
|--4--4--4--4--4--4--4--4--|--L--4--4--4--4--4--4--4--||
|--2--2--2--2--2--2--2--2--|--L--2--2--2--2--2--2--2--||

F#7 (fret bass note with thumb)


OUTRO

Bm    E
G     F#m
Em
            
Submit corrections

comments powered by Disqus
↑ Back to top | Radiohead Tabs for Go Slowly. Lyrics for acoustic guitar and electric guitar. Tablatures and chords are parodies/interpretations of the original songs. You may use it for private study, scholarship, research or language learning purposes only