» » »

Radiohead, Go Slowly Tabs (ver.3)

Artists:  A B C D E F G H I J K L M N O P Q R S T U V W X Y Z # 

Go Slowly Tabs (ver.3)

Radiohead Tabs
 Rating:
4/5 (4 votes)
Go Slowly lessons Tabs too difficult? Try these video lessons and learn fast
                -------------------------------------------------------------------------------
                             Go Slowly - Radiohead
-------------------------------------------------------------------------------
Tuning: Standard.

This isn't perfect, but sounds right when played with one guitar or two (one playing the
sequence, the other the picky bits).

In the song, this section is played throughout the first section, in the chimey sound.
backing sort of, cos it carries on while some picking is done over it later.

     B                   Em7
e|-------7-------7----|-------7-------7--|-----2-------2----|------------------|
B|--------------------|------------------|---3---3---3---3--|-----2-------2----|
G|--------------------|-----7---7---7--7-|------------------|---2---2---2---2--|
D|-----9---9---9---9--|------------------|------------------|------------------|
A|--------------------|---7-------7------|------------------|------------------|
E|---7-------7--------|------------------|-3-------3--------|-2--------2-------|

e|------------------| This whole section repeats.
B|----------5--3--2-|
G|------------------|
D|------------------|
A|------------------|
E|--0---------------| When the first time through gets to this (<-) part, these little
things are played over it. This can be done with a second guitar. Notes in brackets ()
as one instead of the backing.

                            B
e|-------2--------------|-----------7--------------------------|-------------|
B|-----0---5-0---0-3-2--|-------------10---------------7-------|-------------|
G|----------------------|----------------8---------------9-----|-------------|
D|----------------------|------(9)---------------(9)-------9---|-------------|
A|----------------------|--------------------------------------|-------------|
E|--(0)-----------------|---(7)--------------(7)---------------|-------------|

     Em7
e|----------7---------------------------|-----------------------------|------|
B|------------10----------------7-------|----------2-3----------2-3---|------|
G|-----(7)-------7-------(7)-------9----|------4-4----------4-4-------|------|
D|-----------------------------------9--|-----------------------------|------|
A|--(7)--------------(7)----------------|-----------------------------|------|
E|--------------------------------------|-(3)-----------(3)-----------|------|

e|-------------------------------|-------------------------------------------|
B|-----------2-------------2-3---|------(5)-(3)-(2)--------------------------|
G|------2-4----2------2-4------4-|-------------------------------------------|
D|-------------------------------|-------------------------------------------|
A|-------------------------------|-------------------------------------------|
E|--(2)-----------(2)------------|-(0)---------------------------------------|

When the vocals enter, it's mainly the backing, although there is some fiddling over the
I think. Using these riffs as a basis just ad lib over the top.

For the second half of the song, play the backing part except with Bm instead of B, and
the phrase with the 0 in the bass (low E). Use a loose strum, but be sure not to hit all
strings, cos it sounds cr*p.

After a while the song returns to the original, full, picked backing until the fade.

Any corrections welcome. When playing you might need to fiddle around a bit to get it
right, there's a lot going on in the song and so if you're just one guitar you might need
pick and choose what you play. Listen to the song to get the timing.
            
Submit corrections

comments powered by Disqus
↑ Back to top | Radiohead Tabs for Go Slowly. Lyrics for acoustic guitar and electric guitar. Tablatures and chords are parodies/interpretations of the original songs. You may use it for private study, scholarship, research or language learning purposes only