» » »

Radiohead, Go Slowly Tabs (ver.1)

Artists:  A B C D E F G H I J K L M N O P Q R S T U V W X Y Z # 

Go Slowly Tabs (ver.1)

Radiohead Tabs
Rating:
0/5 (0 votes)
Go Slowly lessons Tabs too difficult? Try these video lessons and learn fast
                This is the right tab for this song


The verse
e|-----7-----7-----|-----7-----7-----|-----2-----2-----|-----2-----2-----|
B|-----7-----7-----|-----7-----7-----|-----3-----3-----|-----3-----3-----|
G|-----7-----7-----|-----7-----7-----|-----4-----4-----|-----4-----4-----|
D|-----9-----9-----|-----9-----9-----|-----5-----5-----|-----4-----4-----|
A|-----9-----9-----|-----9-----9-----|-----x-----x-----|-----x-----x-----|
E|-----7-----7-----|-----0-----0-----|-----3-----3-----|-----2-----2-----|


e|-----2-----2-----|
B|-----3-----3-----|
G|-----4-----4-----|
D|-----4-----4-----|
A|-----x-----x-----|
E|-----0-----0-----|


BRIDGE (played twice)
''That there's a way out''


the 0's on the e and B strings are strummed too

e|-7---7-7---0--0---0------0-|-7---7-7---0--0---0------0-|
B|-7---7-7---0--0---0------0-|-7---7-7---0--0---0------0-|
G|-7---7-7---7--7---7h9h7--7-|-7---7-7---7--7---7h9h7--7-|
D|-9---9-9---9--9---9------9-|-9---9-9---9--9---9------9-|
A|-9---9-9---9--9---9------9-|-9---9-9---9--9---9------9-|
E|-7---7-7---7--7---7------7-|-7---7-7---7--7---7------7-|


|-7---7-7---0--0---0------0-|-2-2-2-2-2-2-2-|-2-2-2-2-2-2-2-|
|-7---7-7---0--0---0------0-|-3-3-3-3-3-3-3-|-2-2-2-2-2-2-2-|
|-7---7-7---7--7---7h9h7--7-|-4-4-4-4-4-4-4-|-3-3-3-3-3-3-3-|
|-9---9-9---9--9---9------9-|-5-5-5-5-5-5-5-|-4-4-4-4-4-4-4-|
|-9---9-9---9--9---9------9-|-x-x-x-x-x-x-x-|-4-4-4-4-4-4-4-|
|-0---0-0---0--0---0------0-|-3-3-3-3-3-3-3-|-2-2-2-2-2-2-2-|


And then just back to the verse :)
            
Submit corrections

comments powered by Disqus
↑ Back to top | Radiohead Tabs for Go Slowly. Lyrics for acoustic guitar and electric guitar. Tablatures and chords are parodies/interpretations of the original songs. You may use it for private study, scholarship, research or language learning purposes only