» » »

Queens Of The Stone Age, You Can't Quit Me Baby Tabs (ver.3)

Artists:  A B C D E F G H I J K L M N O P Q R S T U V W X Y Z # 

You Can't Quit Me Baby Tabs (ver.3)

Queens Of The Stone Age Tabs
 Rating:
4/5 (4 votes)
You Can't Quit Me Baby lessons Tabs too difficult? Try these video lessons and learn fast
                Usually its played down in the Qotsa Drop - C Tuning.
I tried to put it down in a normal E-Tuning.

Intro / kind of pre-chorus

e|---------------------------------|
B|---------------------------------|
G|---5/8-8-8-8-8-8/5-5-5-5-5-------|
D|---------------------------------|  repeat it a few times at thebeginning.
A|---------------------------------|  its different in each performance.
E|---------------------------------|

Verse

e|----------------------------------------------------------|
B|----------------------------------------------------------|
G|--5/8------8---------8/5--5--------5/3/5/8-------8--------| repeat everything
D|--x-x-than-x-7times--x-x--x-6times-x-x-x-x--than-x-7------|times the whole verse
A|--3/6------6---------6/3--3--------3/1/3/6-------6--------|
E|----------------------------------------------------------|

Solo

e|--------------------------------------------------------------|
B|--10b----------10---------------------------------------------|
G|-------9b----------repeat it as often as you want to----------|
D|-----------7b-------------------------------------------------|
A|--------------------------------------------------------------|
E|--------------------------------------------------------------|

Chorus

e|--------------------------------------------------------------------------|
B|------------------6-------------------------------------------------------|
G|--2-------4-------6-------------------------------------------------------|  the Drop-C Chorus version, which i saw in a
D|--3-(8x)--5-(8x)--6-(16x)--  live version ( German Bizarre Festival 1998--| ),
A|--3-------5-------4-------------------------------------------------------|  was played that way.
E|--1-------3---------------------------------------------------------------|

C |------------------------------|
G |--2--------4--------10--------|
Eb|--2--8x----4--8x----10---16x--|
Bb|--2--------4--------10--------|
F |------------------------------|
C |------------------------------|
            
Submit corrections

comments powered by Disqus
↑ Back to top | Queens Of The Stone Age Tabs for You Can't Quit Me Baby. Lyrics for acoustic guitar and electric guitar. Tablatures and chords are parodies/interpretations of the original songs. You may use it for private study, scholarship, research or language learning purposes only