» » »

You Can't Quit Me Baby Bass tabs (ver.1)

Artists:  A B C D E F G H I J K L M N O P Q R S T U V W X Y Z # 

You Can't Quit Me Baby Bass tabs (ver.1)

Queens Of The Stone Age
Rating:
0/5 (0 votes)

Hard to play? Try these video lessons and learn fast.
                tuning: E,A,D,G

Intro/ Verse
G:----------------------|
D:-----3--1-3-1-----1h3-|
A:----------------------|
E:-1-1----------1-1-----|

Chorus
G:----------------------------------|
D:-3-3-3-3-3-3-3-3--2-2-2-2-2-2-2-2-|
A:----------------------------------|
E:----------------------------------|

Alt Chorus:
G:----------------------------------|
D:----------------------------------|
A:----------------------------------|
E:-4-4-4-4-4-4-4-4--1-1-1-1-1-1-1-1-|
            
Hard to play? Try these video lessons and learn fast. | Correct




comments powered by Disqus
↑ Back to top | Tablatures and chords are parodies/interpretations of the original songs. You may use it for private study, scholarship, research or language learning purposes only