» » »

Queens Of The Stone Age, How To Handle A Rope Tabs (ver.3)

Artists:  A B C D E F G H I J K L M N O P Q R S T U V W X Y Z # 

How To Handle A Rope Tabs (ver.3)

Queens Of The Stone Age Tabs
Rating:
0/5 (0 votes)
How To Handle A Rope lessons Tabs too difficult? Try these video lessons and learn fast
                Band:	Queens Of The Stone Age
Ablum:	Queens Of The Stone Age

I havent worked out the solo but il do my best to work it out soon :)
Please comment on any corrects.

Enjoy and Please Rate! :)

Guitar 1 (C F A# D# G C)
Guitar 2 (C F A# D# G C)

 Intro
 C|---------------------------------|
 F|------------------------5--------|
A#|------------------------7^-\-----|
D#|---7-7-7--7-10-10-10-------------|Play X6
 G|---7-7-7--5-10-10-10-------------|
 C|---5-5-5----8--8--8--------------|

 Verus
 C|------------------------------------|
 F|----------------------------5-------|
A#|----------------------------7^-\----|
D#|---7-7-7-7-7--7-10-10-10-10---------|
 G|---7-7-7-7-7--5-10-10-10-10---------|
 C|---5-5-5-5-5----8--8--8--8----------|

 C|------------------------------------|
 F|------------------------------------|
A#|------------------------------------|
D#|---7-7-7-7-7--7-10-10-10-10---------|
 G|---7-7-7-7-7--5-10-10-10-10---------|
 C|---5-5-5-5-5----8--8--8--8----------|

 Chrous
 C|----------------------------------------------------------------------|
 F|----------------------------------------------------------------------|
A#|---2-2-2-2-2-2-2-2-2-2-2-2-2-2-2-2-5--5-5-5-5-5-5-5-5-5-5-5-5-5-5-5---|
D#|---2-2-2-2-2-2-2-2-2-2-2-2-2-2-2-2-5--5-5-5-5-5-5-5-5-5-5-5-5-5-5-5---|
 G|---0-0-0-0-0-0-0-0-0-0-0-0-0-0-0-0-3--3-3-3-3-3-3-3-3-3-3-3-3-3-3-3---|
 C|----------------------------------------------------------------------|\
								     Play X2
 C|----------------------------------------------------------------------|/
 F|----------------------------------------------------------------------|
A#|---6-6-6-6-6-6-6-6-6-6-6-6-6-6-6-6------------------------------------|
D#|---6-6-6-6-6-6-6-6-6-6-6-6-6-6-6-6-5--5-5-5-5-5-5-5-5-5-5-5-5-5-5-5---|
 G|---4-4-4-4-4-4-4-4-4-4-4-4-4-4-4-4-5--5-5-5-5-5-5-5-5-5-5-5-5-5-5-5---|
 C|-----------------------------------3--3-3-3-3-3-3-3-3-3-3-3-3-3-3-3---|

 Verus* (Played after first chrous)
 C|--------------------------------------|
 F|----------------------------5---------|
A#|----------------------------7^-\------|
D#|---7-7-7-7-7--7-10-10-10-10-----------|
 G|---7-7-7-7-7--5-10-10-10-10-----------|
 C|---5-5-5-5-5----8--8--8--8------------|

 C|--------------------------------------|
 F|-----------------------------21^------|
A#|---------------------------------17---|
D#|---7-7-7-7-7--7-10-10-10-10-----------|
 G|---7-7-7-7-7--5-10-10-10-10-----------|
 C|---5-5-5-5-5----8--8--8--8------------|

 Verus
 C|------------------------------------|
 F|----------------------------5-------|
A#|----------------------------7^-\----|
D#|---7-7-7-7-7--7-10-10-10-10---------|X5
 G|---7-7-7-7-7--5-10-10-10-10---------|
 C|---5-5-5-5-5----8--8--8--8----------|

 C|---------------------------------|
 F|---------------------------------|
A#|---------------------------------|
D#|---7-7-7-7-7--7-10-10-10-10------|
 G|---7-7-7-7-7--5-10-10-10-10------|
 C|---5-5-5-5-5----8--8--8--8-------|

 Chrous
 C|----------------------------------------------------------------------|
 F|----------------------------------------------------------------------|
A#|---2-2-2-2-2-2-2-2-2-2-2-2-2-2-2-2-5--5-5-5-5-5-5-5-5-5-5-5-5-5-5-5---|
D#|---2-2-2-2-2-2-2-2-2-2-2-2-2-2-2-2-5--5-5-5-5-5-5-5-5-5-5-5-5-5-5-5---|
 G|---0-0-0-0-0-0-0-0-0-0-0-0-0-0-0-0-3--3-3-3-3-3-3-3-3-3-3-3-3-3-3-3---|
 C|----------------------------------------------------------------------|\
								     Play X2
 C|----------------------------------------------------------------------|/
 F|----------------------------------------------------------------------|
A#|---6-6-6-6-6-6-6-6-6-6-6-6-6-6-6-6------------------------------------|
D#|---6-6-6-6-6-6-6-6-6-6-6-6-6-6-6-6-5--5-5-5-5-5-5-5-5-5-5-5-5-5-5-5---|
 G|---4-4-4-4-4-4-4-4-4-4-4-4-4-4-4-4-5--5-5-5-5-5-5-5-5-5-5-5-5-5-5-5---|
 C|-----------------------------------3--3-3-3-3-3-3-3-3-3-3-3-3-3-3-3---|

 (Played after second chrous) Guitar1
 C|-----------------------------------|
 F|----------------------------5------|
A#|----------------------------7^-\---|
D#|---7-7-7-7-7--7-10-10-10-10--------|
 G|---7-7-7-7-7--5-10-10-10-10--------|
 C|---5-5-5-5-5----8--8--8--8---------|
  |
  |Guitar 2 bends same time as Guitar 1
 C|----------|
 F|---5------|
A#|---7^-/---|
D#|----------|
 G|----------|
 C|----------|

  Guitar 1
 C|------------------------------------|
 F|-----------------------------21^----|
A#|------------------------------------|
D#|---7-7-7-7-7--7-10-10-10-10---------|
 G|---7-7-7-7-7--5-10-10-10-10---------|
 C|---5-5-5-5-5----8--8--8--8----------|

 C|------------------------------------|
 F|-----------------------------22^----|
A#|------------------------------------|
D#|---7-7-7-7-7--7-10-10-10-10---------|
 G|---7-7-7-7-7--5-10-10-10-10---------|
 C|---5-5-5-5-5----8--8--8--8----------|

  Thingy before solo
 C|-------------------------------------------------------------|
 F|-------------------------------------------------------------|
A#|-------------------------------------------------------------|
D#|---7-7-7/9-9-9/10-10-10/12/15--------------------------------| Play X8
 G|---7-7-7/9-9-9/10-10-10/12/15--------------------------------|
 C|---5-5-5/7-7-7/8--8--8-/10/13--------------------------------|
This is played twice and then the second plays the fills at the end
and the solo. Guitar 1 repeats this bit through the solo and to the
end of the song

 Guitar 2
 C|-------------------------------------------------------------|
 F|-------------------------------12----------------------------|
A#|-------------------------------14^---------------------------|
D#|-------------------------------------------------------------|
 G|-------------------------------------------------------------|
 C|-------------------------------------------------------------|

 Start of Solo
 C|-------------------------------------------------------------|
 F|--------------------------------12--12-----12--12------------|
A#|--------------------------------14^---14-14--14--------------|
D#|-------------------------------------------------------------|
 G|-------------------------------------------------------------|
 C|-------------------------------------------------------------|
	      Hold bend on 14 till|>>>>>>>|

Solo Still to come sorry!

Mini-Legend :)

^ - Bend
/ - Slide up
\ - Slide Down
            

comments powered by Disqus
↑ Back to top | Queens Of The Stone Age Tabs for How To Handle A Rope. Lyrics for acoustic guitar and electric guitar. Tablatures and chords are parodies/interpretations of the original songs. You may use it for private study, scholarship, research or language learning purposes only