» » »

Queens Of The Stone Age, How To Handle A Rope Bass tabs (ver.3)

Artists:  A B C D E F G H I J K L M N O P Q R S T U V W X Y Z # 

How To Handle A Rope Bass tabs (ver.3)

Queens Of The Stone Age Tabs
Rating:
0/5 (0 votes)
How To Handle A Rope lessons Tabs too difficult? Try these video lessons and learn fast
                HOW TO HANDLE A ROPE

Intro:

G:-------------------------------
D:-------------------------------
A:------------888\--888\---------
E:-111--111----------------------


Verse:

G:--------------------------------
D:--------------------------------
A:--------------------------------
E:-111111--6--444444--------------

Verse Variation:

G:----------------------------------
D:----------------------------------
A:-88888/---------------------------
E:---------6--444444----------------

Chorus:

G:-------------------------------------
D:-------------------------------------
A:-------------------------------------
E:-11111--444444--555555--111111-------

End:

G:--------------------------------
D:--------------------------------
A:---6---7---8--------------------
E:-4---5---6----999999------------
            

comments powered by Disqus
↑ Back to top | Queens Of The Stone Age Bass for How To Handle A Rope. Lyrics for acoustic guitar and electric guitar. Tablatures and chords are parodies/interpretations of the original songs. You may use it for private study, scholarship, research or language learning purposes only