» » »

Go With The Flow.. Tabs (ver.2)

Artists:  A B C D E F G H I J K L M N O P Q R S T U V W X Y Z # 

Go With The Flow.. Tabs (ver.2)

Queens Of The Stone Age
Rating:
0/5 (0 votes)

Tabs too difficult? Try these video lessons and learn fast.
                INTRO
|------------------------------------------------------------------------------|
|------------------------------------------------------------------------------|
|----1--1--1--1--1--1--1--1--1--1--1--1--1--1--1--x----5--5--5--5--5--5--5--x--|
|----2--2--2--2--2--2--2--2--2--2--2--2--2--2--2--x----5--5--5--5--5--5--5--x--|
|----2--2--2--2--2--2--2--2--2--2--2--2--2--2--2--x----3--3--3--3--3--3--3--x--|
|----0--0--0--0--0--0--0--0--0--0--0--0--0--0--0--3-------------------------0--|

|------(12)----------12--12-12-12----------------------------------------------|
|-----------------------------------12---12----------------12--13--15--13----12|
|------------------------------------------------------------------------------|
|------------------------------------------------------------------------------|
|------------------------------------------------------------------------------|
|------------------------------------------------------------------------------|

|------------------------------------------------------------------------------|
|------------------------------------------------------------------------------|
|----2--2--2--2--2--2--2--2--1--1--1--1--1--1--1--1--1--1--1--1--1--1--1---x---|
|----2--2--2--2--2--2--2--2--2--2--2--2--2--2--2--2--2--2--2--2--2--2--2---x---|
|----0--0--0--0--0--0--0--0--2--2--2--2--2--2--2--2--2--2--2--2--2--2--2---x---|
|----------------------------0--0--0--0--0--0--0--0--0--0--0--0--0--0--0---3---|

Chourus 
|-----------12-----------------------------------------------------------------|
|-----------12--------------15--------------12---------------------------------|
|---------------------------14--------------13---------------------------------|
|------------------------------------------------------------------------------|
|------------------------------------------------------------------------------|
|------------------------------------------------------------------------------|

|------------------------------------------------------------------------------|
|------------------------------------------------------------------------------|
|----------5--5--5--5--5--5--5--5----7--7--7--7--7--7--7--7----1--1--1--1--1--1|
|----------5--5--5--5--5--5--5--5----7--7--7--7--7--7--7--7----2--2--2--2--2--2|
|----------3--3--3--3--3--3--3--3----5--5--5--5--5--5--5--5----2--2--2--2--2--2|
|----------3--3--3--3--3--3--3--3----5--5--5--5--5--5--5--5----0--0--0--0--0--0|
            
Tabs too difficult? Try these video lessons and learn fast.




comments powered by Disqus
↑ Back to top | Tablatures and chords are parodies/interpretations of the original songs. You may use it for private study, scholarship, research or language learning purposes only