» » »

Queens Of The Stone Age, Go With The Flow.. Tabs (ver.1)

Artists:  A B C D E F G H I J K L M N O P Q R S T U V W X Y Z # 

Go With The Flow.. Tabs (ver.1)

Queens Of The Stone Age Tabs
Rating:
0/5 (0 votes)
Go With The Flow.. lessons Tabs too difficult? Try these video lessons and learn fast
                ______________________________________
| NOTE: Like all Q.O.T.S.A songs this  |
| one too is tuned two tones down      |
| C F Bb Eb G c However, this tab I    |
| wrote for more convenient use,       |
| standard tuning, so you won't have   |
| to retune your guitar every time.    |
|______________________________________|


Q.O.T.S.A's tuning C F Bb Eb G c


My tuning for this transcription = Standard (EADGBe)

Intro: Guitar 1
e|------------------------------------------------12-12-12\15-12-|
B|---------------------------------------------------------------|
G|------------------------------------------12-13----------------|
D|---------------------------------------------------------------|
A|---------------------------------------------------------------|
E|---------------------------------------------------------------|
       Guitar 2
e|---------------------------------------------------------------|
B|---------------------------------------------------------------|
G|-1-1-1-1-1-1-1-1-1-1-1-1-1-1-1-----5--5--5--5--5--5--5---------|
D|-2-2-2-2-2-2-2-2-2-2-2-2-2-2-2-----5--5--5--5--5--5--5---------|
A|-2-2-2-2-2-2-2-2-2-2-2-2-2-2-2-----3--3--3--3--3--3--3---------|
E|-0-0-0-0-0-0-0-0-0-0-0-0-0-0-0--3------------------------0-----|

       Guitar 1
e|---------------------------------------------------------------|
B|---------------------------------------------------------------|
G|-2-2-2-2-2-2-2-2--1-1-1-1-1-1-1-1-1-1-1-1-1-1-1----------------|
D|-2-2-2-2-2-2-2-2--2-2-2-2-2-2-2-2-2-2-2-2-2-2-2----------------|
A|-0-0-0-0-0-0-0-0--2-2-2-2-2-2-2-2-2-2-2-2-2-2-2----------------|
E|------------------0-0-0-0-0-0-0-0-0-0-0-0-0-0-0--3-------------|
       Guitar 2
e|-(12)--12--12-12-12--------------12-13-15-13-----12------------|
B|---------------------12--12------------------------------------|
G|---------------------------------------------------------------|
D|---------------------------------------------------------------|
A|---------------------------------------------------------------|
E|---------------------------------------------------------------|
      Guitar 2: continued
e|-------------12h14---14^--------------17^---------18^\---------|
B|--(12)--------------1/2--------17-----full---------x-----------|
G|---------12---------------------------------------17-\---------|
D|---------------------------------------------------------------|
A|---------------------------------------------------------------|
E|---------------------------------------------------------------|

Verse: Guitar 1
e|---------------------------------------------------------------------|
B|---------------------------------------------------------------------|
G|-5--5--5--5--5--5--5---2--2--2--2--2--2--2--2--1-1-1-1-1-1-1-1-1-1---|
D|-5--5--5--5--5--5--5---2--2--2--2--2--2--2--2--2-2-2-2-2-2-2-2-2-2---|
A|-3--3--3--3--3--3--3---0--0--0--0--0--0--0--0--2-2-2-2-2-2-2-2-2-2---|
E|-----------------------------------------------0-0-0-0-0-0-0-0-0-0-3-|
       Guitar 2
e|-----------------------------------------------15--------12-12-12-12-12-\-|
B|--12--13--15--13-----12------(12)-----------------------------------------|
G|-----------------------------------------12----------12-------------------|
D|--------------------------------------------------------------------------|
A|--------------------------------------------------------------------------|
E|--------------------------------------------------------------------------|

Chorus: Guitar 1
e|------------------------------------------------------------------------|
B|------------------------------------------------------------------------|
G|--5-5-5-5-5-5-5-5---7-7-7-7-7-7-7-7----1-1-1-1-1-1-1-1-1-1-1-1-1-1-1----|
D|--5-5-5-5-5-5-5-5---7-7-7-7-7-7-7-7----2-2-2-2-2-2-2-2-2-2-2-2-2-2-2----|
A|--3-3-3-3-3-3-3-3---5-5-5-5-5-5-5-5----2-2-2-2-2-2-2-2-2-2-2-2-2-2-2----|
E|--3-3-3-3-3-3-3-3---5-5-5-5-5-5-5-5----0-0-0-0-0-0-0-0-0-0-0-0-0-0-0--3-|
        Guitar 2  w/pick and fingers
e|--12--------------------------------------------------------------------|
B|---------------------15----------------12-------------------------------|
G|--12-----------------------------------13-------------------------------|
D|---------------------14-------------------------------------------------|
A|------------------------------------------------------------------------|
E|------------------------------------------------------------------------|

Verse 2:  Guitar 1 same as first verse
e|---------------------------------------------------------------------|
B|---------------------------------------------------------------------|
G|-5--5--5--5--5--5--5---2--2--2--2--2--2--2--2--1-1-1-1-1-1-1-1-1-1---|
D|-5--5--5--5--5--5--5---2--2--2--2--2--2--2--2--2-2-2-2-2-2-2-2-2-2---|
A|-3--3--3--3--3--3--3---0--0--0--0--0--0--0--0--2-2-2-2-2-2-2-2-2-2---|
E|-----------------------------------------------0-0-0-0-0-0-0-0-0-0-3-|
         Guitar 2
e|---------------------------------------------------------------|
B|-----------------------------------12------12\9----------------|
G|---------------------------------------------------------------|
D|-------------------------------14------14----------------------|
A|---------------------------------------------------------------|
E|---------------------------------------------------------------|
         Guitar 2: continued
e|---------------------------------------------------------------|
B|-----8----------8\7----------------5--------(5)\---------------|
G|---------------------------------------------------------------|
D|---------------------------------------------------------------|
A|---------------------------------------------------------------|
E|---------------------------------------------------------------|
        Guitar 2: continued
e|------15-------------------12--------------------------------------------|
B|----------------12----------------15^------------------------------------|
G|----------------------------------------------14^------------------------|
D|-----------------------------------------14----------14\12---------------|
A|-------------------------------------------------------------12\10-------|
E|---------------------------------------------------------------------10--|
        Guitar 2: continued
e|--------------------------------------------------------------15-------|
B|--------------------------------------------------------------------19-|
G|------------------11\-----------\9---------9--9------9--9--------------|
D|-----------------------------------------------------------------------|
A|-----------------------------------------------------------------------|
E|---12------------------------------------------------------------------|

Outro:  Guitar 1 plays Chorus 
        Guitar 2 play this
e|---15-----------------------12-12-12-12-12-12-12-12-12-12------||
B|---12--------12------------------------------------------------||
G|---------------------------------------------------------------||o
D|---------------------------------------------------------------||o
A|---------------------------------------------------------------||
E|---------------------------------------------------------------||

        Guitar 2: continued
e|--15-15-15-15-15-15-15-15--17-17-17-17-17-17-17-17--16-16-16-16-16-16-16-16-|
B|----------------------------------------------------------------------------|
G|----------------------------------------------------------------------------|
D|----------------------------------------------------------------------------|
A|----------------------------------------------------------------------------|
E|----------------------------------------------------------------------------|

        Guitar 1
e|-------------------------------------------------------|
B|-------------------------------------------------------|
G|--1---1----1---1----1----1----1---1---1---1----1----1--|
D|--2---2----2---2----2----2----2---2---2---2----2----2--|
A|--2---2----2---2----2----2----2---2---2---2----2----2--|
E|--0---0----0---0----0----0----0---0---0---0----0----0--|
      
        Guitar 2: continued
e|-16-16-16-16-16-16-16-16-16--17^--17^--17^--17^--17^---|
B|-------------------------------------------------------|
G|-------------------------------------------------------|
D|-------------------------------------------------------|
A|-------------------------------------------------------|
E|-------------------------------------------------------|


There's some QOTSA for ya, should be 100% correct note for note in
corrections.  PLEASE RATE!!!!!!
            

comments powered by Disqus
↑ Back to top | Queens Of The Stone Age Tabs for Go With The Flow... Lyrics for acoustic guitar and electric guitar. Tablatures and chords are parodies/interpretations of the original songs. You may use it for private study, scholarship, research or language learning purposes only