» » »

Queens Of The Stone Age, God Is In The Radio Tabs (ver.2)

Artists:  A B C D E F G H I J K L M N O P Q R S T U V W X Y Z # 

God Is In The Radio Tabs (ver.2)

Queens Of The Stone Age Tabs
Rating:
0/5 (0 votes)
God Is In The Radio lessons Tabs too difficult? Try these video lessons and learn fast
                Tuning(low-to-high): (down 2 full steps) C F Bb Eb G c
Key: / \ = slide
      h  = hammer-on
      p  = pull-off
      b  = bend
      r  = release
      *  = natural harmonic
     ( ) = ghost note
      x  = mute note
      ~  = vibrato
      ^  = let ring
      #  = stompbox on/off


Intro:

|---------|----------|----------|---------------------#slightly dirty--|
|---------|----------|----------|--------------------------------------|
|---------|----------|----------|--------------------------------------|
|---------|----------|----------|--------------------------------9-----|
|---------|----------|----------|------------------------9h10h11-------|
|---------|----------|----------|----------------------------------10--|


Main Riff (play 4 times):

||--------------------------------------------------------------------||
||--------------------------------------------------------------------||
||--------------------------------------------------------------------||
||-----11-----------11----------------11----------------9-------------|| <end Main Riff>
||---------9h11--------------9h11--------------9h10h11----------------||
||--9------------9--------9--------9--------9--------------10---------||


Verse:

     1.I thought I saw him on the video
       A trance was keeping him under
       I know that god is in the radio
       Ch-ch-ch checking the station
       The narcotic from me to you
       Just a caught in the medium
       I know you hear it, I hear it too
       It's everywhere that I go                           you come
||--------------------------------------------------------------------||
||--------------------------------------------------------------------||
||--------------------------------------------------------------------||
||-----11-----------11----------------11----------------9-------------|| <end Verse>
||---------9h11--------------9h11--------------9h10h11----------------||
||--9------------9--------9--------9--------9--------------10---------||


Chorus:
  1.back      another day                    and do no wrong  you come
    back      another day                    and do no wrong  you come
||--------------------------------------------------------------------||
||--------------------------------------------------------------------||
||--------------------------------------------------------------------||
||--------------------------------------------------------------------||
||--11--\-------9----11\------------7---7---7---7---7---7---7---7/----||
||---9--\---(0)-7-(0)-9\------------5-5-5-5-5-5-5-5-5-5-5-5-5-5-5/----||

    back      another day                    and do no wrong  you come
|----------------------------------------------------------------------|
|----------------------------------------------------------------------|
|----------------------------------------------------------------------|
|-----------------9----------------------------------------------------|
|---11--\-------9-7--11\------------7---7---7---7---7---7---7---7/-----|
|----9--\---(0)-7-----9\------------5-5-5-5-5-5-5-5-5-5-5-5-5-5-5/-----|

    back      another day                    and do no wrong  
|----------------------------------------------------------------------|
|----------------------------------------------------------------------|
|----------------------------------------------------------------------|
|-----------------------------------------------------------------9----| <end Chorus>
|---11--\-------9----11\------------7---7---7---7---7---7-9h10h11------|
|----9--\---(0)-7-(0)-9\------------5-5-5-5-5-5-5-5-5-5-5-----------10-|

Play Main Riff 2 times


Verse 2 (w/ Verse Riff):
    2.They say the devil is paranoid
      Always trying to cover
      But god was leaking through the stereo
      Between the station to station
      You believe it I know you do
      You wont admit or say so
      I know that god is in the radio
      Just repeating the slogan you come

Play Chorus


Interlude:

|---------------------------------|------------------------------------|
|---------------------------------|------------------------------------|
|---------------------------------|------------------------hvy. dist#--|
|---------------------------------|---------------------------------9--|
|--11\----------------------------|---------------------------------9--|
|---9\----------------------------|---------------------------------7--|


Bridge:

||---------------------------------------------------------------------|
||---------------------------------------------------------------------|
||---------------------------------------------------------------------|
||--7-----------------------9/11--11---9/11--11---9/11--11---9/11--11--|
||--7-----7-----7-----7-----7//9---9---7//9---9---7//9---9---7//9---9--|
||--5--5--5--5--5--5--5--5---------------------------------------------|

                                                                
|---------------------------------------------------------------------||
|-----------------------------------------------------lead gtr.>12b---||
|---------------------------------------------------------------------||
|-----11-------11-------11-------11--------11--------11---------9-----|| <end Bridge>
|---------------------------------------------------------------9-----||
|--9--------9--------9--------9---------9---------9--------9----7-----||


Guitar Solo (w/ Bridge 2 times):

|----------------------------------------------------------------------|
|--12~~~~~~~~~~~~~~~~~~~~----------------------------------------------|
|---------------------------9h11-------9-------9---11p9--------11b-----|
|---------------------------------11-------11-------------11-----------|
|----------------------------------------------------------------------|
|----------------------------------------------------------------------|

|----------------------------------------------------------------------|
|----------------------------------------------------------------------|
|--11b~~~~~~~~~~~~~~~~~r--------11------9-------------------------9----|
|---------------------------11------11-----11b~~~~~~~~r~~~~~~~~~-------|
|----------------------------------------------------------------------|
|----------------------------------------------------------------------|

|----------------------------------------------------------------------|
|---------------------12------12h14--14--12h14/17--14h17/19--19b-------|
|--------9--11/13---------13-------------------------------------------|
|--11------------------------------------------------------------------|
|----------------------------------------------------------------------|
|----------------------------------------------------------------------|

|--------------------------------------------19b-----------------------|
|--19b~~~~~~~~~~~~~~~~~~~~-------19------17-(19b)19r~---------19b------|
|----------------------------18------18--------------------18-----18---|
|----------------------------------------------------------------------|
|----------------------------------------------------------------------|
|----------------------------------------------------------------------|

 lead gtr.
|-----------------------------21-19------19h21-------------------------|
|--17~17----19/21-19\17----17--------21---------21\19--17------7h19-17-|
|--------18-------------18---------------------------------18----------|
|----------------------------------------------------------------------|
|----------------------------------------------------------------------|
|----------------------------------------------------------------------|
|rhythm gtr.							       |
|----------------------------------------------------------------------|
|----------------------------------------------------------------------|
|----------------------------------------------------------------------|
|--7-----------------------9/11--11---9/11--11---9/11--11---9/11--11---|
|--7-----7-----7-----7-----7//9---9---7//9---9---7//9---9---7//9---9---|
|--5--5--5--5--5--5--5--5----------------------------------------------|

 lead gtr.
|----------------------------------------------------------------------|
|----------------------------------------------------------------------|
|-----18\16----------16h18-----------------------------(let ring 1 bar)|
|------------18--16-----------18\16\14--------------16b------14~~~~~~~~|
|--------------------------------------------16------------------------|
|----------------------------------------------------------------------|
|rhythm gtr.                                                           |
|----------------------------------------------------------------------|
|----------------------------------------------------------------------|
|----------------------------------------------------------------------|
|------9/11----11-----9/11----11-----9/11----11-----9/11----11---------|
|------7//9-----9-----7//9-----9-----7//9-----9-----7//9-----9---------|
|----------------------------------------------------------------------|


Outro 1 (play 2 times, begin fade 2nd time):

||---------------------------------------------------------------------|
||--#slightly dirty----------------------------------------------------|
||---------------------------------------------------------------------|
||-----11-------11-------11-------11--------11--------11---------------|
||----------x-----------------x-------------------x--------------------|
||--9-----------------9------------------9-------------------10--------|

|----------------------------------------------------------------------|
|----------------------------------------------------------------------|
|----------------------------------------------------------------------|
|-----11-------11-------11-------11--------11--------11----------------|
|----------x-----------------x-------------------x---------------------|
|--9-----------------9------------------9---------------------7--------|

|----------------------------------------------------------------------|
|----------------------------------------------------------------------|
|----------------------------------------------------------------------|
|-----11-------11-------11-------11--------11--------11---\9/----------|
|----------x-----------------x-------------------x---------x-----------|
|--9-----------------9------------------9-----------------\7/----------|

|---------------------------------------------------------------------||
|---------------------------------------------------------------------||
|---------------------------------------------------------------------||
|/11--11-------11-------11-------11--------11-------------9-----------|| <end Outro 1>
|--x-------x-----------------x-------------------9h10h11--------------|| <begin fade>
|//9-----------------9------------------9--------------------10-------||


Re-Intro (fade in w/ Outro 1 2 times):

|-|--------|------------|-|------------|----------------------|-|------|
|-|-4h5p4--|-4h5/7~--7b-|-|-5h7/11~-10-|-5h7/11~--12p11p9h11~-|-|-/14~-|
|-|------4-|------------|-|------------|----------------------|-|------|
|-|--------|------------|-|------------|----------------------|-|------|
|-|--------|------------|-|------------|----------------------|-|------|
|-|--------|------------|-|------------|----------------------|-|------|


Guitar Solo 2:

|--#hvy. dist----------------------------------------------------------|
|-------------------------x-17--17-------------------16----16----------|
|----------------------------x18------------------16----16-------------|
|-------14~------------------------------------------------------------|
|-----------16-16-16-16~------------16-16-16-16~-----------------------|
|----------------------------------------------------------------------|
| 								       |
| rhythm gtr. plays this throughout solo	 	               |
||--#hvy. dist--------------------------------------------------------||
||--------------------------------------------------------------------||
||--------------------------------------------------------------------||
||--11----11--11--11--11--11--11--11--11--11--11--11--11----12--------|| 
||--11----11--11--11--11--11--11--11--11--11--11--11--11----12--------||
||---9-----9---9---9---9---9---9---9---9---9---9---9---9----10--------||

|----------------------------------------------------------------------|
|----------------------------------------------------------------------|
|--16~----------------------------------------17b----------------------|
|--------18-18~----18--18~----21p18~-21p18~----------------------------|
|----------------------------------------------------------------------|
|----------------------------------------------------------------------|

|----------------------------------------------------------------------|
|----------------------------------------------------------------------|
|--b17r~---------14----------------------------------------------------|
|------------17------17--15-b17r~--15--17------15~---------------------|
|------------------------------------------17--------------------------|
|----------------------------------------------------------------------|

|----------------------------------------------------------------------|
|----------------------------------------------------------------------|
|------------------16~--15--15b15-15-15r---13--------------------------|
|---------15/17/18-----------------------------------------------------|
|--17~-----------------------------------------------------------------|
|----------------------------------------------------------------------|

|----------------------------------------------------------------------|
|------------------11--12--11--12--------------------------------------|
|--12--13--12--13------------------12--13--12--11b--9------------------|
|----------------------------------------------------------------------|
|----------------------------------------------------------------------|
|----------------------------------------------------------------------|

|-----------------------------------------------14b--------------------|
|------------------------------------12/14~--12-----14\12/14~----------|
|-------------9-11b-11bp9----9-11/13-----------------------------------|
|--11~---9/11-------------11-------------------------------------------|
|----------------------------------------------------------------------|
|----------------------------------------------------------------------|

|----------------------------------------------------------------------|
|--12--14----------------------12~~~~~~~~~~~~~~~-----------------------|
|----------13\11----9--11b~~~~~~~~~~~~~~~~~~~~~~r--------11b~~~~~~~~~~~|
|----------------------------------------------------------------------|
|----------------------------------------------------------------------|
|----------------------------------------------------------------------|

|----------------------------------------------------------------------|
|--12~~~~~~~-----------------------------------------------------------|
|~~~~~~~~~~~r------------------9--11--9------9------9--11b--9~---------|
|----------------------------------------11-----11--------------11~~~~~|
|----------------------------------------------------------------------|
|----------------------------------------------------------------------|
|								       |
||--------------------------------------------------------------------||
||--------------------------------------------------------------------||
||--------------------------------------------------------------------||
||--11--11--11--11--11--11--11--11--11--11--11--11--11--11--12--------|| 
||--11--11--11--11--11--11--11--11--11--11--11--11--11--11--12--------||
||---9---9---9---9---9---9---9---9---9---9---9---9---9---9--10--(9)---||


Outro 2:

|-------------------------|--------------|--------------|--------------|
|-------------------------|--------------|--------------|--------------|
|-------------------------|--------------|--------------|--------------|
|-(11)~~~~~~~~~~~~~~~~~~~-|--------------|--------------|--------------|
|-------------------------|--------------|--------------|--------------| <begin fade>
|-------------------------|--------------|--------------|--------------|


Well, I did my best on this one and I think it's pretty accurate. The
only part I'm not too sure about is the 2nd guitar solo, but if you just
mess around with it, you should be able to get it to sound good. Here's
a little trick: if you want to play in standard tuning, just play every-
thing 4 frets lower (9th fret would be 5th fret). It is possible with 
this song. I just tab it this way because this IS the way Josh plays it.
Thanks, 
Guitar Hero: Keith Dillon
            
Submit corrections

comments powered by Disqus
↑ Back to top | Queens Of The Stone Age Tabs for God Is In The Radio. Lyrics for acoustic guitar and electric guitar. Tablatures and chords are parodies/interpretations of the original songs. You may use it for private study, scholarship, research or language learning purposes only