» » »

Queens Of The Stone Age, God Is In The Radio Tabs (ver.1)

Artists:  A B C D E F G H I J K L M N O P Q R S T U V W X Y Z # 

God Is In The Radio Tabs (ver.1)

Queens Of The Stone Age Tabs
Rating:
0/5 (0 votes)
God Is In The Radio lessons Tabs too difficult? Try these video lessons and learn fast
                Tuning: Down Half a Step Eb-Ab-Db-Gb-Bb-eb

Verses:
eb[------------------------------------------------------]
Bb[------------------------------------------------------]
Gb[------------------------------------------------------]
Db[-----8-----------8----------8-------------------------]
Ab[--------------------------------9--8------------------]
Eb[-6h7---6--6-6h7----6--6-6h7---6-7--6------------------]

Chorus:
eb[------------------------------------------------------]
Bb[------------------------------------------------------]
Gb[------------------------------------------------------]
Db[---8-x---6-6--x-8------4-4-4-4-4-4-4-4----------------]
Ab[---8-x---6-6--x-8------4-4-4-4-4-4-4-4----------------]
Eb[---6-x---4-4--x-6------2-2-2-2-2-2-2-2----------------]

This is just a variation on the chorus
eb[------------------------------------------------------]
Bb[------------------------------------------------------]
Gb[--------------6---------------------------------------]
Db[---8-x---6-6--6-8------4-4-4-4-4-4-4-4----------------]
Ab[---8-x---6-6--4-8------4-4-4-4-4-4-4-4----------------]
Eb[---6-x---4-4----6------2-2-2-2-2-2-2-2----------------]

Bridge:
eb[--------------------------------------------------------------]
Bb[--------------------------------------------------------------]
Gb[-----------------------6/8-8-8-6/8-8-8-6/8-8-8-6/8-8-8--------]
Db[--6--4-4-4-4-4-4-4-4-4-6/8-8-8-6/8-8-8-6/8-8-8-6/8-8-8--------]
Ab[--6--4-4-4-4-4-4-4-4-4-4/6-6-6-4/6-6-6-4/6-6-6-4/6-8-8--------]
Eb[--4--2-2-2-2-2-2-2-2-2----------------------------------------]

This part is played under the solo
eb[--------------------------------------------------------------------------]
Bb[--------------------------------------------------------------------------]
Gb[-----------------------------------6/8-8-8-6/8-8-8-6/8-8-8-6/8-8-8--------]
Db[-8-8-8-8-8-8--6--4-4-4-4-4-4-4-4-4-6/8-8-8-6/8-8-8-6/8-8-8-6/8-8-8--------]
Ab[-8-8-8-8-8-8--6--4-4-4-4-4-4-4-4-4-4/6-6-6-4/6-6-6-4/6-6-6-4/6-8-8--------]
Eb[-6-6-6-6-6-6--4--2-2-2-2-2-2-2-2-2----------------------------------------]

Solo:1
eb[---------------------------------------------------------------------]
Bb[---------------------------------------------------------------------]
Gb[-14b-14~~------------------------------------------------------------]
Db[------------12-14-12-12----12-12-14-12-12-14--14b---12--14p12-14-----]
Ab[------------------------14---------------------------------------14b-]
Eb[---------------------------------------------------------------------]

eb[--------------------------------------------------------------]
Bb[--------------------------------------------------17b--17B----]
Gb[----------------------14-----14h16----14h16----14-------------]
Db[-12b----------12--14b-----16-------16-------16----------------]
Ab[-----14---/14-------------------------------------------------]
Eb[--------------------------------------------------------------]

eb[---------------17b--------------------------------------------]
Bb[---15-17p15---------15r------17br--15---15---15-15/19-17-19---]
Gb[------------16------------16---------------16-----------------]
Db[--------------------------------------------------------------]
Ab[--------------------------------------------------------------]
Eb[--------------------------------------------------------------]

eb[---18p16----16h18-----------------------------------16h18-16-------]
Bb[---------18-------18-16-----------16h18-16-------16----------18p16-]
Gb[------------------------18-18p16-----------18p16-------------------]
Db[-------------------------------------------------------------------]
Ab[-------------------------------------------------------------------]
Eb[-------------------------------------------------------------------]

eb[-------------------------------]
Bb[-------------------------------]
Gb[--18-16h18---------------------]
Db[-----------16h18---------------]
Ab[------------------18-16~~~~~~--]
Eb[-------------------------------]

Solo:2
eb[--------------------------------------------------------------]
Bb[-------------6h7---p6-----------------------------------------]
Gb[--6h7p6h7p6------------6h7/9--9b--6h7p6-6/9---5h6/12--5h6/12--]
Db[--------------------------------------------------------------]
Ab[--------------------------------------------------------------]
Eb[--------------------------------------------------------------]

eb[---------------------------------------------------------------------]
Bb[--------------------/11---11-14--11--11h14p11-14--11-14--9-9p14-9p14-]
Gb[-12h13p12-11/13\-----------------------------------------------------]
Db[---------------------------------------------------------------------]
Ab[---------------------------------------------------------------------]
Eb[---------------------------------------------------------------------]

eb[----------------------------------------------------------------------]
Bb[-7h9-7---7h9-7--7h9-7--7h9-7--11br--6-9-7-6-5br-----------------------]
Gb[------------------------------------------------3-6p3-3---3--5-6-6/12-]
Db[----------------------------------------------------------------------]
Ab[----------------------------------------------------------------------]
Eb[----------------------------------------------------------------------]

eb[---------------------------------------------------------------------------]
Bb[---------------------------------------------10----10----------------------]
Gb[-10-12-12-12b-12b-12r-10-9---9-10-9-10-10/12----12----10--9-10-9-10-9b-6~~-]
Db[---------------------------------------------------------------------------]
Ab[---------------------------------------------------------------------------]
Eb[---------------------------------------------------------------------------]

eb[---------------------------------------------------------------------------]
Bb[-------------------------------18b---------------------------9b-9b--9r-----]
Gb[----6-8-9-6h8p6---6-8-/12-/15------18b-16--8-10-8h10p8--9b-8-9b-9b--9r-----]
Db[--8-------------8----------------------------------------------------------]
Ab[---------------------------------------------------------------------------]
Eb[---------------------------------------------------------------------------]

eb[--------------------------]
Bb[--------------------------]
Gb[----8p6---8p6---8-6b------]
Db[--8-----8-----8------8----]
Ab[--------------------------]
Eb[--------------------------]

Okay thats it ive finished, i didnt think it would take so long.
The solos may be a bit off in places, cos my guitar kept going out of tune
but its very close. ENJOY!!
            
Submit corrections

comments powered by Disqus
↑ Back to top | Queens Of The Stone Age Tabs for God Is In The Radio. Lyrics for acoustic guitar and electric guitar. Tablatures and chords are parodies/interpretations of the original songs. You may use it for private study, scholarship, research or language learning purposes only