» » »

Queens Of The Stone Age, Better Living Through Chemistry Tabs (ver.3)

Artists:  A B C D E F G H I J K L M N O P Q R S T U V W X Y Z # 

Better Living Through Chemistry Tabs (ver.3)

Queens Of The Stone Age Tabs
 Rating:
3.6/5 (5 votes)
Better Living Through Chemistry lessons Tabs too difficult? Try these video lessons and learn fast
                Tuning: E B G D A F

Intro:

E-----------------------------------------------------------------------------------|
B-----------------------------------------------------------------------------------|
G-----------------------------------------------------------------------------------|
D-----------------------------------------------------------------------------------|
A-------8---8-----8----16-16-16---16---15-15-15---15----12-12-12-----12-------------|
F---0-0---0---0-0---0-----------0----0----------0----0-----------0-0----------------|

E------------------------------------------------------------|
B------------------------------------------------------------|
G------------------------------------------------------------|
D------------------------------------------------------------|
A-----12----12----11-11----11-----10----10/12----------------|
F---0----0-----0---------0-----0-----0-----------------------|

Chorus:
E------------------------------------------------------------------------------------------|
B------------------------------------------------------------------------------------------|
G------------------------------------------------------------------------------------------|
D---3-1-3-3/5-3-1-0-1----3-1-3-3/-5-3-1-0-1----3-1-3-3/5-3-1-0-1---3-1-0----0----0---------|
A-------------------------------------------------------------------------3----3-----------|
F------------------------------------------------------------------------------------------|

Solo:
E-------------------------------------------------------------------------------------------|
B-------------------------------------------------------------------------------------------|
G-------------------------------------------------------------------------------------------|
D-------------------------------------------------------------------------------------------|
A--------11-11-11-11------11-11-11-11--------10-10-10-10-------10-10-10-10------------------|
F---0-0--------------0-0----------------0-0---------------0-0-------------------------------|

E--------------------------------------------------------------------------------------------|
B--------------------------------------------------------------------------------------------|
G--------------------------------------------------------------------------------------------|4X
A--------13-13-13-13-------13-13-13-13------15-15-15-15-------15-15-15-15--------------------|
F---0-0---------------0-0---------------0-0--------------0-0---------------------------------|

E------------------------4-6-8---------------------------------------------------------------|
B-------------------4-6----------------------------------------------------------------------|
G----------1h3-3/5---------------------------------------------------------------------------|
D---3p1h3------------------------------------------------------------------------------------|
A--------------------------------------------------------------------------------------------|
F--------------------------------------------------------------------------------------------|

E---------------------------------------------------------6b-8-8-8-8-8-8-8r-6-4-6-4--------4-|
B-----6b-8-8-8-8-8-8-8r6-4-6-4--------4----------------------------------------------6-4-6---|
G-------------------------------5-3-5--------------------------------------------------------|
D--------------------------------------------------------------------------------------------|
A--------------------------------------------------------------------------------------------|
F--------------------------------------------------------------------------------------------|

E---6b-8-8-8-8-8-8-8r-6-4------------------4--------------------------------------------------|
B--------------------------6--4------4--6-----------------------------------------------------|
G---------------------------------5-----------------------------------------------------------|
D---------------------------------------------------------------------------------------------|
A---------------------------------------------------------------------------------------------|
F---------------------------------------------------------------------------------------------|
            
Submit corrections

comments powered by Disqus
↑ Back to top | Queens Of The Stone Age Tabs for Better Living Through Chemistry. Lyrics for acoustic guitar and electric guitar. Tablatures and chords are parodies/interpretations of the original songs. You may use it for private study, scholarship, research or language learning purposes only