» » »

Queens Of The Stone Age, Better Living Through Chemistry Tabs (ver.2)

Artists:  A B C D E F G H I J K L M N O P Q R S T U V W X Y Z # 

Better Living Through Chemistry Tabs (ver.2)

Queens Of The Stone Age Tabs
Rating:
5/5 (18 votes)
Better Living Through Chemistry lessons Tabs too difficult? Try these video lessons and learn fast
                          
          Title: Better Living Through Chemistry
          
          This is great song. It's really atmospheric, but has 
          lightning fast guitar parts to it, and a smooth tom-tom
          intro or something.
          It's a pretty fast guitar piece, but when you get it, it's
          nice and satisfying.
          My tab is NOT complete, so if you can fill it in, please do so.
          
          Standard Tuning. (EADGBE)
          
          ------------------------------------------------------------------------------
          -------------------2-2---2---1-1---1------------------------------------------
          ---------------------------------------2-2-----2---2---2---1-1---1---0-0---0--
          -----3---3-----3--------------------------------------------------------------
          ------------------------------------------------------------------------------
          -1-1---1---1-1---1-----1---1-----1---1-----1-1---1---1---1-----1---1-----1----
           Intro and verses.                                                            
          
          ------------------------------------------------------------------------------
          -----------------------2-2---2---1-1---1--------------------------------------
          -------------------------------------------2-2-----2---2---2---1-1---1---3-3--
          ---3-3-----3---3---3----------------------------------------------------------
          ------------------------------------------------------------------------------
          -1-----1-1---1---1---1-----1---1-----1---1-----1-1---1---1---1-----1---1------
                                                   Fill 1.                              
          
          ------------------------------------------------------------------------------
          ------------------------------------------------------------------------------
          ---3/5------------------------------------------------------------------------
          ------------------------------------------------------------------------------
          ------------------------------------------------------------------------------
          -1----------------------------------------------------------------------------
            Bass comes in here. At this point, repeat  with fill 2 instead of fill 1.   
          
          ------------------------------------------------------------------------------
          ---4-4-----4---4---4---2-2---2---1-1---1--------------------------------------
          ------------------------------------------------------------------------------
          ------------------------------------------------------------------------------
          ------------------------------------------------------------------------------
          -1-----1-1---1---1---1-----1---1-----1---1------------------------------------
           Fill 2.                                                                      
          
          -------------------|-------------------|-------------------|------------------
          -------------------|-------------------|-------------------|------------------
          -------------------|-------------------|-------------------|------------------
          -3-1-3-3/5-3-1-0-1-|-3-1-3-3/5-3-1-0-1-|-3-1-3-3/5-3-1-0-1-|-3-1-0---0---0-1--
          -------------------|-------------------|-------------------|-------3---3------
          -------------------|-------------------|-------------------|------------------
           Break.  x2                                                                   
          
          ------------------------------------------------------------------------------
          ------------------------------------------------------------------------------
          ---------1-1-1-1---------1-1-1-1---------0-0-0-0---------0-0-0-0--------------
          ------------------------------------------------------------------------------
          ------------------------------------------------------------------------------
          -1-1-1-1---------1-1-1-1---------1-1-1-1---------1-1-1-1----------------------
           Chorus. ("aahhhhhh....ahhhhhhhhh")    x4?                                    
          
          ------------------------------------------------------------------------------
          ------------------------------------------1-1-1-1-----------------------------
          ----------3-3-3-3---------3-3-3-3---------------------------------------------
          ------------------------------------------------------------------------------
          ------------------------------------------------------------------------------
          --1-1-1-1---------1-1-1-1---------1-1-1-1-------------------------------------
                                                                                        
          
          --------------------4-6-8-----------------------------------------------------
          ----------------4-6-----------------------------------------------------------
          --------1h3-3/5---------------------------------------------------------------
          --3p1h3-----------------------------------------------------------------------
          ------------------------------------------------------------------------------
          ------------------------------------------------------------------------------
           Lead (repeat but not sure how many times)                                    
          
          -------------------------------------------6b8-8-8-8-8-8-8r6-4-6-4-------4----
          ------6b8-8-8-8-8-8-8r6-4-6-4-------4------------------------------6-4-6------
          ------------------------------5-3-5-------------------------------------------
          ------------------------------------------------------------------------------
          ------------------------------------------------------------------------------
          ------------------------------------------------------------------------------
           Also add this (repeat but not sure how many times)                           
          
          --6b8-8-8-8-8-8-8r6-4-----------4---------------------------------------------
          ----------------------6-4---4-6-----------------------------------------------
          --------------------------5---------------------------------------------------
          ------------------------------------------------------------------------------
          ------------------------------------------------------------------------------
          ------------------------------------------------------------------------------
           Add several  variations on the lead lines (sorry but I can't tab them)       
          
          ------------------------------------------------------------------------------
          ------------------------------------------------------------------------------
          ------------------------------------------------------------------------------
          ------------------------------------------------------------------------------
          ------------------------------------------------------------------------------
          ------------------------------------------------------------------------------
          Finally finish with a repeat of the verse, and then the break, and end with
          an F on fret 3 on the d string ringing out.
          
          Please feel free to mail corrections, suggestions, other alt rock/metal tabs 
          
          Cheers. #:¬)
            
Submit corrections

comments powered by Disqus
↑ Back to top | Queens Of The Stone Age Tabs for Better Living Through Chemistry. Lyrics for acoustic guitar and electric guitar. Tablatures and chords are parodies/interpretations of the original songs. You may use it for private study, scholarship, research or language learning purposes only