» » »

She Fucking Hates Me Tabs (ver.3)

Artists:  A B C D E F G H I J K L M N O P Q R S T U V W X Y Z # 

She Fucking Hates Me Tabs (ver.3)

Puddle Of Mudd
Rating:
0/5 (0 votes)

Hard to play? Try these video lessons and learn fast.
                E     A     F#      B
e---------------------------------]
B---------------------------------]
G---1------2------3-------4-------]
D---------------------------------]
A--------0------------2-2---------]
E-0----0------4/2---2-------------]


  E     A      F#      B
e---0-------0-----------------------]
B---0-------2--------2---------4----]
G---1-------2--------3---------4----]
D---2-------2--------4---------4----]
A---2-----0-0--------4-----2--2--2--]
E-0-0---0-------4/2--2----2---------]

thats it. Its not a hard song. All u need to do is pluk the nots on the g sting a little harder. Good luck.
            
Hard to play? Try these video lessons and learn fast. | Correct




comments powered by Disqus
↑ Back to top | Tablatures and chords are parodies/interpretations of the original songs. You may use it for private study, scholarship, research or language learning purposes only