» » »

Puddle Of Mudd, She Fucking Hates Me Tabs (ver.2)

Artists:  A B C D E F G H I J K L M N O P Q R S T U V W X Y Z # 

She Fucking Hates Me Tabs (ver.2)

Puddle Of Mudd Tabs
 Rating:
4/5 (4 votes)
She Fucking Hates Me lessons Tabs too difficult? Try these video lessons and learn fast
1
                hey i think this sounds perfect but if youhave any corrections on it please email






In standard tuning

  Verse
E|--------------------------------------------------------------
B|--------------------------------------------------------------
G|--------------------------------------------------------------
D|----2---------7----------4-----------9------------------------
A|----2---------7----------4-----------9------------------------
E|0-------4-5--------0-2------2-7--7-----7----------------------
           Repeat a couple times

    
  
Chorus (distorted)
E|---------------------------------------------------------------
B|---------------------------------------------------------------
G|-------------------------------4-4-4-4-------------------------
D|-2-2-2-2---7-7-7-7---4-4-4-4---4-4-4-2-------------------------
A|-2-2-2-2---7-7-7-7---4-4-4-4---2-2-2-2-------------------------  4x
E|-0-0-0-0---5-5-5-5---2-2-2-2-----------------------------------


  Solo (lots of wah-wah)
E|---------------------------|-----------------------------------
B|---------------------------|-----------------------------------
G|---------------------------|-----------------------------------
D|-----------7-7-7-7--7-9----|-----------------------------------
A|--7-7-7-7----------9-9-----|-----------------------------------
E|---------------------------|-----------------------------------
            
Submit corrections

comments powered by Disqus
↑ Back to top | Puddle Of Mudd Tabs for She Fucking Hates Me. Lyrics for acoustic guitar and electric guitar. 1 Tablatures and chords are parodies/interpretations of the original songs. You may use it for private study, scholarship, research or language learning purposes only