>
 >
Frizzle Fry 1

Frizzle Fry 1 Guitar Tabs

Primus - Frizzle Fry 1 chords, tabs, tablatures, lyrics

Guitar lessons | Add/correct | Request | Top 50 tabs Artists:  A B C D E F G H I J K L M N O P Q R S T U V W X Y Z 0-9

Frizzle Fry 1 Guitar Tabs – Primus

CD, Sheet music, Poster

Do you like Frizzle Fry 1? Share with your friends now
Bass TabsBass Tabs v2Bass Tabs v3Bass Tabs v4TabsTabs v2
Frizzle Fry 

 
On tour at the moment. I saw them at Roseland in NYC Aug 3rd 1995.
Mike Watt sucked.

if you think this is wrong, or just too easy, e-mail me at:

JTracy.prs.k12.nj 
Remember, I'm not gonna pay money to answer you back :)


Remember view this and all tabs in MONOSPATIAL FONTS like Monaco or Courier


This is a fun song to play live. Just get an ADA bass preamp for 
distortion and a nasty drummer.  I played this at some arcade in NY and 
got PAID. (Of course we played other songs) But who cares about me.
Just use that short bass interlude to get ready before the solo. 

1:                                                           well,maybe 
e|-----------------------------------|--8/10-----------------------------|
B|-3--3--3/7-\3--8p7--7-/10---11p10--|-----------------------3-----------|
G|-----------------------------------|-----------------------2-----------|
D|-----------------------------------|-----------------------0-----------|
A|-----------------------------------|-----------------------------------|
E|-----------------------------------|-----------------------------------|
 
Rhythm figure 2:
e|--------------8p5--5-5\3-3---------|-----------------------------r-----|
B|--3h4-3--3/7-----------------------|--3h4-----3--------3---------e-----|
G|-----------------------------------|------0---2------------------p-----|
D|-----------------------------------|----------0------------------e-----|
A|-----------------------------------|--------------3/4------------a-----|
E|-----------------------------------|-----------------------------t-----|
 
play this at the end of the verse
e|-----------------------------------|
B|---3h4-3--3---1----3---------------|
G|--------------0----2---------------|
D|-------------------0---------------|
A|-----------------------------------|
E|-----------------------------------|

Golden hair of macabe...
e|-----------------------------------|-----------------------------------|
B|-3--3/7\-3\1-1-----3--3\1-1----3---|--3---3---1------7-----------------|
G|-----------------------------------|-----------------7-----------------|
D|-----------------------------------|-----------------7-----------------|
A|-----------------------------------|-----------------5-----------------|
E|-----------------------------------|-----------------------------------|

For those morons who just got a guitar from daddy yesterday, palm mute means
to put your picking hand palm on the strings just touching the bridge enough
to limit the duration of the string vibrations, but not to completly deaden
the string.

 Palm mute.......  PM..........      PM..........
e|-----------------------------------|-----------------------------------|
B|-----------------------------------|-----------------------------------|
G|-----------------------------------|-----------------------------------|
D|--7-----------3----7-----------4---|-7-----------5---7-----------------|
A|--5--5--6--7--3----5--5--6--7--4---|-5--5--6--7--5---5--5--6--7--------|
E|-----3--4--5--1-------3--4--5--2---|----3--4--5--3------3--4--5--------|
                  let ring......
e|-----------------------------------|
B|-----------------------------------|
G|--------------7--------------------|
D|--6/7---6/7---7--------------------|
A|--6/7---6/7---5--------------------|
E|--4/5---4/7------------------------|

When Barrington starts to breathe again,

It may just take us all away!

e|-----------------------------------|-----------------------------------|
B|-----------------------------------|--3h4-3--3--3---1-1-1-1/3-3-3-3b4--|
G|-----------------------------------|-----------------------------------|
D|-----------------------------------|-----------------------------------|
A|-----------------------------------|-----------------------------------|
E|-----------------------------------|-----------------------------------|


e|-----------------------------------|-----------------8/11--------------|
B|--3---7-7-7--3--3h4p3--4-6-3---8--8|-8--10-10h11-11--------------------|
G|-----------------------------------|-----------------------------------|
D|-----------------------------------|-----------------------------------|
A|-----------------------------------|-----------------------------------|
E|-----------------------------------|-----------------------------------|

Sorry about the timing, it's not exactly easy to be precise here.  But 
if you have any sense of rhythm you should get it.

I'm not gonna do the solo, since it's just improv (Eb minor scale or
something). It would also defeat the purpose of playing a song arranged like
this one. Just remember to keep those highs ringing. Or try to play it like
on "Suck on This"

e|-----------------------------------|
B|-3--3----3--3--1---3--3----3--3--1-|
G|-2--2----2--2--0---2--2----2--2--0-|
D|-0--0----0--0--0---0--0----0--0--0-|
A|-----------------------------------|
E|-----------------------------------|

e|-----------------------------------|-----------------------------------|
B|-----------------------------------|-----------------------------------|
G|--777888999....until you get as high as you want, 19 is good-----------|
D|-----------------------------------|-----------------------------------|
A|-----------------------------------|-----------------------------------|
E|-----------------------------------|-----------------------------------|

e|-----------------------------------|-----------------------------------|
B|-----------------------------------|-----------------------------------|
G|-----------------------------------|-----------------------------------|
D|---7-----------3----7-----------4--|--7-----------5---7---------6/7-6/7|
A|---5-----------3----5-----------4--|--5-----------5---5---------6/7-6/7|
E|------5--6--7--1-------5--6--7--2--|-----5--6--7--3-----5--6--7-4/5-4/5|

End with 7, let your bass player do the rest.
         7
         5
I think there's a bass tab already posted. It's fairly accurate, but it's not
like this is an extremely hard song on bass.


I know Brendan Hill of Blues Traveler's brother. If anyone wants some tabs or
info of the band e-mail me. Don't get your hopes up though, I only met John
Popper twice. (He played at our school band concert at Princeton High) My
guitar and bass instructor taught their guitarist. 
PS. They used to be called Blues Band and their next video is gonna be Hook.
They had a vid out for "But Anyway" but it's so shitty MTV wouldn't accept
it.





Comments


Popular Primus tabs & chords
11 Bass Tabs
Fisticufs Bass Tabs
Harold Of The Rock 1 Bass Tabs
Mrs. Blaileen 1 Bass Tabs
Sgt. Baker 1 Bass Tabs
Electric Uncle Sam Tabs
John The Fisherman 1 Tabs
Pork Chop 1 Tabs
Pudding Time Tabs
Sgt. Baker Tabs


Song lyrics



↑ Back to top | Tablatures and chords are parodies/interpretations of the original songs. You may use it for private study, scholarship, research or language learning purposes only
© 2014 AZChords.com Contact us | Privacy policy | DMCA | Add/correct tabs | Request tabs | Top 50 tabs