» » »

Primus, Frizzle Fry Bass tabs (ver.1)

Artists:  A B C D E F G H I J K L M N O P Q R S T U V W X Y Z # 

Frizzle Fry Bass tabs (ver.1)

Primus Tabs
 Rating:
4/5 (4 votes)
Frizzle Fry lessons Tabs too difficult? Try these video lessons and learn fast
1
                "(2)
FRIZZLE FRY  from Frizzle Fry (updated 5/15/95)
-----------

Listening to the CD, I've noticed some chorusing, so if you have a bass
chorus pedal, power it up.

this song, from which I reprint this interlude riff:  

Intro
G------------|
D-6----------|  do this a couple times and then move the whole
A--667h6p-6-6|  riff up a minor third (start on the 4th fret on the  
E--------8-7-|  D-string)

I suggest playing it starting on the G-string, You can get a better sound
that way.  Like this:

G-|-1--------------------|-
D-|---1-1-2h-1p---1---1--|-
A-|-------------3---2----|- 
E-|----------------------|-

Here's the way I think the rest of it sould go:

P = pop    
p = pull off
V = downstroke strum

Intro
		         V
G-|----------------------7--|-
D-|--7P-0p-0P-----0P-7h--0--|-
A-|-------------------------|-
E-|-------------------------|-


Main riff
                      V                       V
G-|-------------------8---|-------------------7----|-
D-|--0P-7P-0p-0P---0P-8---|--0P-7P-0p-0P---0P-7----|-
A-|-------------------6---|-------------------5----|-
E-|-----------------------|------------------------|-

                      V                       V   V
G-|-------------------8---|-------------------5---7----|-
D-|--0P-7P-0p-0P---0P-8---|--0P-7P-0p-0P---0P-5---7----|-
A-|-------------------6---|-------------------3---5----|-
E-|-----------------------|----------------------------|-
"            
Submit corrections

comments powered by Disqus
↑ Back to top | Primus Bass for Frizzle Fry. Lyrics for acoustic guitar and electric guitar. 1 Tablatures and chords are parodies/interpretations of the original songs. You may use it for private study, scholarship, research or language learning purposes only