» » »

Fisticuffs Bass tabs (ver.1)

Artists:  A B C D E F G H I J K L M N O P Q R S T U V W X Y Z # 

Fisticuffs Bass tabs (ver.1)

Primus
Rating:
0/5 (0 votes)

Hard to play? Try these video lessons and learn fast.
                drop to C# (Les plays a 6 string, but you can get away with playing C# on this song)

Riff A: (3 times)
A---2h4--2h4--2h4-0---0h2h4-0-------------
C#------------------6---------6--3-3---3--

Riff B: (once)
A---2h4--2h4--2h4-0-----------------------
C#------------------6------------5-5---5--

Riff C: (8 times)
G------6-------------------------------------
D---------5------5---------------------------
A---4---------4-----4---4--5--4--5/7-----7\--
C#-------------------------------------------

Riff D: (4 times)
A------4-------------------------------------
C#--0-----6---0--6--0---0--1--0--1/3-----3\--

Riff E: (twice)
G--------------------------------------------
D------4-------------------------------------
A---------3------3---------------------------
C#--5----------5----5---5--6--5--6/8-----8\--

Riff D: (twice)
Riff C: (4 times)
Riff D: (4 times)
Riff E: (twice)
Riff D: (4 times)
Riff C: (12 times)
Riff D: (3 times)

Riff F: (once)
A------4-------------------7-7-5-5p4----
C#--0-----6---0--6--0---5------------0--

Riff D: (4 times)
Riff E: (twice)
Riff D: (4 times)
Riff C: (3 times)

Riff G: (once)
G------6--------------------------------7-8h9--
D---------5------5----------------7-8h9--------
A---4---------4-----4-------7-8h9--------------
C#----------------------8h9--------------------

Riff C: (once)
Riff G: (once)
Riff C: (once)
Riff G: (once)
Riff C: (4 times)
Riff A: (3 times)
Riff B: (once)
            
Hard to play? Try these video lessons and learn fast. | Correct




comments powered by Disqus
↑ Back to top | Tablatures and chords are parodies/interpretations of the original songs. You may use it for private study, scholarship, research or language learning purposes only