» » »

Primus, Fisticuffs Bass tabs (ver.3)

Artists:  A B C D E F G H I J K L M N O P Q R S T U V W X Y Z # 

Fisticuffs Bass tabs (ver.3)

Primus Tabs
4/5 (4 votes)
Fisticuffs lessons Tabs too difficult? Try these video lessons and learn fast

G ||------------------------------||----------||
D ||------------------------------||--3-3--3--||
A ||--2-4h-4-4-------4------------||----------||
E ||-----------5-3-x---5-3-x-0-0--||----------||
                  ^4th time cutoff point

G ||-----6-------------------------||
D ||-------6---5-------------------||
A ||--4------4---4--4-5h-4-5h-7-7--||
E ||-------------------------------||

G ||-----11------------------------------||-------------||
D ||-------11---10-----------------------||-------------||
A ||--9-------9----9--9-10h-9-10h-12-12--||--9-9-7-5-4--||
E ||-------------------------------------||-------------||

G ||-------||
D ||-------||
A ||-------||
E ||--0-0--||

Submit corrections

comments powered by Disqus
↑ Back to top | Primus Bass for Fisticuffs. Lyrics for acoustic guitar and electric guitar. Tablatures and chords are parodies/interpretations of the original songs. You may use it for private study, scholarship, research or language learning purposes only