>
 >
Bob 1

Bob 1 Guitar Tabs

Primus - Bob 1 chords, tabs, tablatures, lyrics

Guitar lessons | Add/correct | Request | Top 50 tabs Artists:  A B C D E F G H I J K L M N O P Q R S T U V W X Y Z 0-9

Bob 1 Guitar Tabs – Primus

CD, Sheet music, Poster

Do you like Bob 1? Share with your friends now
Bass TabsBass Tabs v2Bass Tabs v3TabsTabs v2
^ = bend
p^ = pre-bend note and bend down to normal
* = let ring
X = ghost note
<#> = vibrato
#h# = hammer-on
#p# = pull-off
/ = slide up
\ = slide down

||-----------||
||-----------||
||----*/*----|| play everything on the same line
||-----------|| that came before this
||-----------||
||-----------||

||------------||
||------------||
||-----##-----|| rest for one bar
||------------||
||------------||
||------------||

||--------------------------------------------||
||--------------------------------------------||
||*-when you get to the symbol on the right,-*||
||*-go back to the symbol on the left--------*||
||--------------------------------------------||
||--------------------------------------------||

Riff A:
e||-------------------------------7-|-------------------------||
B||----7--7--0h6p0----------------6-|-7--0h6p0----------------||
G||*--x------------7--0h7p0---------|----------7--0h7p0-------||
D||*-x----------------------9--0----|-------------------9-----||
A||---------------------------------|---------------------<8>-||
E||---------------------------------|-------------------------||

e||-------------------------7-|--------------------------||
B||-7--0h6p0----------------6-|-7--0h6p0-----------------||
G||----------7--0h7p0---------|----------7--0h7p0----12--||
D||-------------------9--0----|-------------------9------||
A||---------------------------|---------------------<8>--||
E||---------------------------|--------------------------||

1st, 2nd, 3rd Verses: Rhythm figure 1:
e||-------------------------7-|-------------------------||
B||-------------------------6-|-------------------------||
G||---------------------------|------10--10----------10-||
D||---------------------------|------9---9--------------||
A||-0-------------------------|-----x-------------------||
E||---------------------------|----x--------------------||

e||--------x--7---------------|-------------------------||
B||--------x--6---------------|--------------15---------||
G||---------------------------|--16*-----16------16-----||
D||---------------------------|------15--------------15-||
A||---------------------------|-------------------------||
E||---------------------------|-------------------------||

Interlude:
e||--------------------||----------------------------|--------------------------------||
B||---------15---------||--15---------15------15-----|-15------15------15------15-----||
G||-----16------16-----||*--------13------13------13-|-----13------13------13------13-||
D||-15--------------15-||*---------------------------|--------------------------------||
A||--------------------||----------------------------|--------------------------------||
E||--------------------||----------------------------|--------------------------------||

e||--------------------------------||-----------||----------------------||
B||-15------15------15------15-----||-----------||-15--------15---(15)\-||
G||-----13------13------13------13-||----*/*---*||------13---14---(15)\-||
D||--------------------------------||----------*||----------------------||
A||--------------------------------||-----------||----------------------||
E||--------------------------------||-----------||----------------------||

Solo:
e||---------------------|---------------------|-----------------------||
B||---------------------|---------------------|---------------------7-||
G||---------------------|-6p^-----------------|---------------6--7----||
D||---------------------|-----8p^--8-8-6--6-|-6\5-6-8--9----------||
A||---------------------|---------------------|-----------------------||
E||---------------------|---------------------|-----------------------||

E||----------------7-8-8p7-8-|-10/11-11-11-13-13-13-12-11-12-16-16-16-|-16---14-------------||
B||-------7-9-109-----------|----------------------------------------|------------------17-||
G||-10-10--------------------|----------------------------------------|---------------------||
D||--------------------------|----------------------------------------|---------------------||
A||--------------------------|----------------------------------------|---------------------||
E||--------------------------|----------------------------------------|---------------------||

E||---------------------------------|----------------------------------||
B||-------15----13-13---11----9---9-|-11----------------------15-17-17-||
G||-17-15----15------------11---9---|----11-13/15-15-15-15-17----------||
D||---------------------------------|----------------------------------||
A||---------------------------------|----------------------------------||
E||---------------------------------|----------------------------------||

E||-------------16--18^^^^^20^^^^(20)/22-||
B||-17/19p17-19--------------------------||
G||--------------------------------------||
D||--------------------------------------||
A||--------------------------------------||
E||--------------------------------------||

Outro:
E||-22---22-------------------|------------|------------|---------------------------------||
B||-21---21-------------------|------------|------------|--------------------15-----(15)\-||
G||---------------------------|-----##-----|-----##-----|-17------16---------16-----(16)\-||
D||---------------------------|------------|------------|-----15---------15---------------||
A||---------------------------|------------|------------|---------------------------------||
E||---------------------------|------------|------------|---------------------------------||

E||---------------------------||-------------------------------7-|------------------------||
B||-6--6--6-----7-----7-----8-||----6--6--0h6p0----------------6-|-6--0h6p0---------------||
G||----------5-----5-----6----||*--x------------7--0h7p0---------|----------7--0h7p0------||
D||---------------------------||*-x----------------------9--0----|-------------------9----||
A||---------------------------||---------------------------------|----------------------8-||
E||---------------------------||---------------------------------|------------------------||

E||-----------------------7-|--------------------------||-7----7-7---8-9-9--||
B||-6--0hp0---------------6-|-------6--6--7-7-7-6-6-6--||----6-6-6-7---8-8--||
G||---------7--0hp0---------|----4-----4--5-5-5-4-4-4-*||------------------*||
D||-----------------9--0----|-6--------6--7-7-7-6-6-6-*||------------------*||
A||-------------------------|--------------------------||-------------------||
E||-------------------------|--------------------------||-------------------||

E||-------------------------------------||---------------------------------||
B||-------9--9--9------7------8------8--||-----6-----6-----7----------8----||
G||-7-----7--7--7------8---------------*||-----7-----7--8----------------9-||
D||----9--9--9--9--10-----10-----11----*||-9------9-----------10--11-------||
A||-------------------------------------||---------------------------------||
E||-------------------------------------||---------------------------------||





Comments


Popular Primus tabs & chords
Hello Skinny 1 Bass Tabs
Laquer Head 1 Bass Tabs
Master Of Puppets 7 Bass Tabs
Poetry And Prose Bass Tabs
Southbound Pachyderm Bass Tabs
Southbound Pachyderm 6 Bass Tabs
Southbound Pachyderm 7 Bass Tabs
Tommy The Cat Bass Tabs
Spegetti Western Drum Tabs
Intruder Tabs


Song lyrics



↑ Back to top | Tablatures and chords are parodies/interpretations of the original songs. You may use it for private study, scholarship, research or language learning purposes only
© 2014 AZChords.com Contact us | Privacy policy | DMCA | Add/correct tabs | Request tabs | Top 50 tabs