>
 >
Bob

Bob Bass Tabs

Primus - Bob chords, tabs, tablatures, lyrics

Guitar lessons | Add/correct | Request | Top 50 tabs Artists:  A B C D E F G H I J K L M N O P Q R S T U V W X Y Z 0-9

Bob Bass Tabs – Primus

CD, Sheet music, Poster

Do you like Bob? Share with your friends now
Bass TabsBass Tabs v2Bass Tabs v3TabsTabs v2
||---                                      ---||
||---                                      ---||
||*-- Repeat Bars: when you get to the one --*||
||*-- to the right, go back to the         --*||
||--- one on the left                      ---||
||---                                      ---||

||-------||
||-------||
||--*/*--|| Also to do with repeating,
||-------|| repeat just the previous bar
||-------||
||-------||

#h# = hammer-on
#p# = pull-off
s = slap
p = pop
/ = slide up
\ = slide down
V = downstroke
^ = upstroke

Intro:
C||---------7---------7---------------|---------6---------7---------------||
G||-----7-------7/8-------8-----------|-----7-------7/8-------8-----------||
D||-0-------------------------9--(9)\-|-0-------------------------9--(9)\-||
A||-----------------------------------|-----------------------------------||
E||-----------------------------------|-----------------------------------||
B||-----------------------------------|-----------------------------------||

C||---------6-------6h7---7---7---6-----|---------------------------------------||
G||-----7-------7---------------------7-|-6h7p6---------------------------------||
D||-0-----------------------------------|---------7---6h7p6---------------------||
A||-------------------------------------|---------------------7---6h7p6---------||
E||-------------------------------------|---------------------------------------||
B||-------------------------------------|---------------------------------7--6\-||

Figure 1:V  ^  V            V
C||------2--x--2------------0-||---------||
G||------2--x--2------------0-||---------||
D||*--------------------------||---*/*--*||
A||*--------------------------||--------*||
E||---------------------------||---------||
B||-/3--------------3p2-0-----||---------||
     s              s   s

         V  ^  V
C||------2--x--2-------------||
G||------2--x--2-------------||
D||--------------------------||
A||--------------------------||
E||----------------3p2-0-----||
B||-/3-------------------/8\-||
     s             s   s  s

1st, 2nd, and 3rd Verses: Figure 2:
         V  ^  V            V
C||------2--x--2------------0-||-----------------------||
G||------2--x--2------------0-||-----------------------||
D||---------------------------||----------*/*----------||
A||---------------------------||-----------------------||
E||---------------------------||-----------------------||
B||-/3--------------3p2-0-----||-----------------------||
     s              s   s

         V  ^  V                V              V
C||------2--x--2----------------0--|-----------0-------------||
G||------2--x--2------3-----3---0--|-----------0-------------||
D||---------------/3-----3---------|-------------------------||
A||--------------------------------|-------------------------||
E||--------------------------------|-4--4--4------------3----||
B||-/3-----------------------------|--------------1--------1-||
     s                               s  s  s      s     s  s

Interlude:    V          V                   V
C||-----------0-------------||------------------||-----------------------||
G||-----------0-------------||------------------||-----------------------||
D||---------------------(2)/||*/9-----------(2)/||----------*/*----------||
A||---------------------(2)/||*/9-----------(2)/||-----------------------||
E||-4--4--4-----------------||-----11-----------||-----------------------||
B||---------------1---------||---------9\-------||-----------------------||
    s  s  s       s                s   s

                              V              V
C||----------------------------------------------||-----------||
G||----------------------------------------------||-----------||
D||-/9-----------------------(2)/9----------(2)/*||/9---------||
A||-/9-----------------------(2)/9----------(2)/*||/9---------||
E||------11-------------------------11-----------||----11-----||
B||-----------9-11-12-(12)\-------------9\-------||--------9\-||
         s    s s  s          ^     s   s              s   s
 To Coda (second time through)|

Coda:                                                               V   V ^ V
C||-------------------6-------7------------||-------||-------6------6h7-7-7-6---||
G||----------------7-----7/8-----8---------||-------||----7------7------------7-||
D||-/9----------0-------------------9-(9)\-||--*/*--||-0------------0---0-0-0---||
A||-/9-------------------------------------||-------||--------------------------||
E||-----11---------------------------------||-------||--------------------------||
B||---------9\-----------------------------||-------||--------------------------||
        s   s
Outro:
C||------------6-----------7------------------||---------||-------||
G||-------7---------7/8---------8-------------||---------||-------||
D||*-0-------------------------------9---(9)\-||---*/*--*||--*/*--||
A||*------------------------------------------||--------*||-------||
E||-------------------------------------------||---------||-------||
B||-------------------------------------------||---------||-------||





Comments


Popular Primus tabs & chords
Jellikit 1 Bass Tabs
Laquer Head 4 Bass Tabs
Mephisto & Kevin Bass Tabs
My Name Is Mud 2 Bass Tabs
On The Tweek Again Bass Tabs
Professor Nutbutter 3 Bass Tabs
Tippi Toes 2 Bass Tabs
Pork Chop Chords
Jerry Was A Race Car Driver 2 Tabs
Master Of Puppets Tabs


Song lyrics



↑ Back to top | Tablatures and chords are parodies/interpretations of the original songs. You may use it for private study, scholarship, research or language learning purposes only
© 2014 AZChords.com Contact us | Privacy policy | DMCA | Add/correct tabs | Request tabs | Top 50 tabs