» » »

Primus, Amos Moses Bass tabs (ver.2)

Artists:  A B C D E F G H I J K L M N O P Q R S T U V W X Y Z # 

Amos Moses Bass tabs (ver.2)

Primus Tabs
Rating:
5/5 (1 vote)
Hard to play? Try these video lessons and learn fast.
                This is the entire song, enjoy

G----------------------------------------------|
D--------------7~-5~------------------7~-5~----|
A--------------------7~---------------------7~-|
E-5---5---3/5------------5---5---3/5-----------|

G--------------------------------------------------------------------------------|
D-----2---2---2---2---2------4---4---7---7---7------7---7---7---7---7------7-----|
A-0-0---0---0---0---0----2-2---2---5---5---5----5-5---5---5---5---5----5-5---5-5-|
E--------------------------------------------------------------------------------|

G----------------------------------------------|
D--------------7~-5~------------------7~-5~----|
A--------------------7~---------------------7~-|
E-5---5---3/5------------5---5---3/5-----------|

G--------------------------------------------------------------------------------|
D-----2---2---2---2---2------4---4---7---7---7------7---7---7---7---7------7-----|
A-0-0---0---0---0---0----2-2---2---5---5---5----5-5---5---5---5---5----5-5---5-5-|
E--------------------------------------------------------------------------------|

G----------------------------------------------|
D--------------7~-5~------------------7~-5~----|
A--------------------7~---------------------7~-|
E-5---5---3/5------------5---5---3/5-----------|

G-------------------------------------------------------------------------------------|
D-----9---9---7---7---7-------------------------9---9---7---7---7---------------------|
A-7-7---7---5---5---5--------7-7-7--x--4-5--7-7---7---5---5---5--------7-7-7------4-5-|
E------------------------5-5---------5-----------------------------5-5--------4h5-----|

G-----------------------------7-5------------|
D-----9---9---7---7---7-----------7~-5-------|
A-7-7---7---5---5---5----5-------------7--5~-|
E--------------------------------------------|

G----------------------------------------------|
D--------------7~-5~------------------7~-5~----|
A--------------------7~---------------------7~-|
E-5---5---3/5------------5---5---3/5-----------|

G--------------------------------------------------------------------------------|
D-----2---2---2---2---2------4---4---7---7---7------7---7---7---7---7------7-----|
A-0-0---0---0---0---0----2-2---2---5---5---5----5-5---5---5---5---5----5-5---5-5-|
E--------------------------------------------------------------------------------|

G----------------------------------------------|
D--------------7~-5~------------------7~-5~----|
A--------------------7~---------------------7~-|
E-5---5---3/5------------5---5---3/5-----------|

G--------------------------------------------------------------------------------|
D-----2---2---2---2---2------4---4---7---7---7------7---7---7---7---7------7-----|
A-0-0---0---0---0---0----2-2---2---5---5---5----5-5---5---5---5---5----5-5---5-5-|
E--------------------------------------------------------------------------------|

G----------------------------------------------|
D--------------7~-5~------------------7~-5~----|
A--------------------7~---------------------7~-|
E-5---5---3/5------------5---5---3/5-----------|

G-------------------------------------------------------------------------------------|
D-----9---9---7---7---7-------------------------9---9---7---7---7---------------------|
A-7-7---7---5---5---5--------7-7-7--x--4-5--7-7---7---5---5---5--------7-7-7------4-5-|
E------------------------5-5---------5-----------------------------5-5--------4h5-----|

G-----------------------------7-5------------|
D-----9---9---7---7---7-----------7~-5-------|
A-7-7---7---5---5---5----5-------------7--5~-|
E--------------------------------------------|

G----------------------------------------------|
D--------------7~-5~------------------7~-5~----|
A--------------------7~---------------------7~-|
E-5---5---3/5------------5---5---3/5-----------|

G----------------------------------------------|
D--------------7~-5~------------------7~-5~----|
A--------------------7~---------------------7~-|
E-5---5---3/5------------5---5---3/5-----------|

G----------------------------------------------|
D--------------7~-5~------------------7~-5~----|
A--------------------7~---------------------7~-|
E-5---5---3/5------------5---5---3/5-----------|
            

comments powered by Disqus
↑ Back to top | Primus Bass for Amos Moses. Lyrics for acoustic guitar and electric guitar. Tablatures and chords are parodies/interpretations of the original songs. You may use it for private study, scholarship, research or language learning purposes only