» » »

Primus, Amos Moses Bass tabs (ver.1)

Artists:  A B C D E F G H I J K L M N O P Q R S T U V W X Y Z # 

Amos Moses Bass tabs (ver.1)

Primus Tabs
 Rating:
4.2/5 (5 votes)
Amos Moses lessons Tabs too difficult? Try these video lessons and learn fast
1
                
AMOS MOSES (Bassline)
As recorded by Primus
(From the 1998 Album RHINOPLASTY)

	

Words and Music by Jerry Reed (Hubbard)
Arranged by James Stewart

Gtr I (E A D G) - 'Untitled'

 Intro
  Q=100
 7/8           4/4
  Gtr I
  H..           e E Q  e E E E   E E +E  E +E  E +Q
|-----------||-----------------|-----------------------||
|-----------||o----------------|---7-(7)-5-(5)--------o||
|-----------||o----------------|---------------7-(7)--o||
|-----------||--5------5-----3S|=5---------------------||


 Verse
  e E E S S S S E E S S   E E E S S S S E E S S
|-----------------------|-----------------------|
|-----2---2---2---2---2-|-----4---4---7---7---7-|
|-0-0---0---0---0---0---|-2-2---2---5---5---5---|
|-----------------------|-----------------------|


  E E E S S S S E E S S   e E E E q  Q
|-----------------------|---------------|
|-----7---7---7---7---7-|-----7---------|
|-5-5---5---5---5---5---|-5-5---5-5-----|
|-----------------------|---------------|


  e E Q  e E E E   E E +E  E +E  E +Q
|----------------|----------------------|
|----------------|---7-(7)-5-(5)--------|
|----------------|---------------7-(7)--|
|-5------5-----3S|=5--------------------|


  e E Q  e E E E   E E +E  E +E  E +Q
|----------------|----------------------|
|----------------|---7-(7)-5-(5)--------|
|----------------|---------------7-(7)--|
|-5------5-----3S|=5--------------------|


  e E E S S S S E E S S   E E E S S S S E E S S
|-----------------------|-----------------------|
|-----2---2---2---2---2-|-----4---4---7---7---7-|
|-0-0---0---0---0---0---|-2-2---2---5---5---5---|
|-----------------------|-----------------------|


  E E E S S S S E E S S   e E E E q  Q
|-----------------------|---------------|
|-----7---7---7---7---7-|-----7---------|
|-5-5---5---5---5---5---|-5-5---5-5-----|
|-----------------------|---------------|


  e E Q  e E E E   E E +E  E +E  E +Q
|----------------|----------------------|
|----------------|---7-(7)-5-(5)--------|
|----------------|---------------7-(7)--|
|-5------5-----3S|=5--------------------|


  e E Q  e E E E   E E +E  E +E  E +Q
|----------------|----------------------|
|----------------|---7-(7)-5-(5)--------|
|----------------|---------------7-(7)--|
|-5------5-----3S|=5--------------------|


 Chorus
  E E E S S S S E E S S   E E S e S S S E E E
|-----------------------|---------------------|
|-----9---9---7---7---7-|---------------------|
|-7-7---7---5---5---5---|-----7-7-7---x---4-5-|
|-----------------------|-5-5-----------5-----|


  E E E S S S S E E S S   E E S e S S  S  E E E
|-----------------------|-------------------------|
|-----9---9---7---7---7-|-------------------------|
|-7-7---7---5---5---5---|-----7-7-7---------4-5---|
|-----------------------|-5-5---------(4)h5-------|


                                              Guitar Lead 1
  E E E S S S S E E S S   H    S E S +S  S E   W          +W
|-----------------------|------7-5-----------|----------|--------|
|-----9---9---7---7---7-|----------7-(7)-5---|----------|--------|
|-7-7---7---5---5---5---|-5----------------7-|-5--------|-(5)----|
|-----------------------|--------------------|----------|--------|


  e E Q  e E E E   E E +E  E +E  E +Q
|----------------|----------------------|
|----------------|---7-(7)-5-(5)--------|
|----------------|---------------7-(7)--|
|-5------5-----3S|=5--------------------|


  e E Q  e E E E   E E +E  E +E  E +Q
|----------------|----------------------|
|----------------|---7-(7)-5-(5)--------|
|----------------|---------------7-(7)--|
|-5------5-----3S|=5--------------------|


 Verse
  e E E S S S S E E S S   E E E S S S S E E S S
|-----------------------|-----------------------|
|-----2---2---2---2---2-|-----4---4---7---7---7-|
|-0-0---0---0---0---0---|-2-2---2---5---5---5---|
|-----------------------|-----------------------|


  E E E S S S S E E S S   e E E E q  Q
|-----------------------|---------------|
|-----7---7---7---7---7-|-----7---------|
|-5-5---5---5---5---5---|-5-5---5-5-----|
|-----------------------|---------------|


  e E Q  e E E E   E E +E  E +E  E +Q
|----------------|----------------------|
|----------------|---7-(7)-5-(5)--------|
|----------------|---------------7-(7)--|
|-5------5-----3S|=5--------------------|


  e E Q  e E E E   E E +E  E +E  E +Q
|----------------|----------------------|
|----------------|---7-(7)-5-(5)--------|
|----------------|---------------7-(7)--|
|-5------5-----3S|=5--------------------|


  e E E S S S S E E S S   E E E S S S S E E S S
|-----------------------|-----------------------|
|-----2---2---2---2---2-|-----4---4---7---7---7-|
|-0-0---0---0---0---0---|-2-2---2---5---5---5---|
|-----------------------|-----------------------|


  E E E S S S S E E S S   e E E E q  Q
|-----------------------|---------------|
|-----7---7---7---7---7-|-----7---------|
|-5-5---5---5---5---5---|-5-5---5-5-----|
|-----------------------|---------------|


  e E Q  e E E E   E E +E  E +E  E +Q
|----------------|----------------------|
|----------------|---7-(7)-5-(5)--------|
|----------------|---------------7-(7)--|
|-5------5-----3S|=5--------------------|


  e E Q  e E E E   E E +E  E +E  E +Q
|----------------|----------------------|
|----------------|---7-(7)-5-(5)--------|
|----------------|---------------7-(7)--|
|-5------5-----3S|=5--------------------|


 Chorus
  E E E S S S S E E S S   E E S e S S S E E E
|-----------------------|---------------------|
|-----9---9---7---7---7-|---------------------|
|-7-7---7---5---5---5---|-----7-7-7---x---4-5-|
|-----------------------|-5-5-----------5-----|


  E E E S S S S E E S S   E E S e S S  S  E E E
|-----------------------|-------------------------|
|-----9---9---7---7---7-|-------------------------|
|-7-7---7---5---5---5---|-----7-7-7---------4-5---|
|-----------------------|-5-5---------(4)h5-------|


                                              Guitar Lead 2
  E E E S S S S E E S S   H    S E S +S  S E   W          +W
|-----------------------|------7-5-----------|----------|--------|
|-----9---9---7---7---7-|----------7-(7)-5---|----------|--------|
|-7-7---7---5---5---5---|-5----------------7-|-5--------|-(5)----|
|-----------------------|--------------------|----------|--------|


   Outro
    e E Q  e E E E   E E +E  E +E  E +Q
||-----------------|----------------------|
||o----------------|---7-(7)-5-(5)--------|
||o----------------|---------------7-(7)--|
||--5------5-----3S|=5--------------------|


  e E Q  e E E E   E E +E  E +E  E +Q     6x
|----------------|------------------------||
|----------------|---7-(7)-5-(5)---------o||
|----------------|---------------7-(7)---o||
|-5------5-----3S|=5----------------------||



Duration Legend
---------------
W - whole; H - half; Q - quarter; E - 8th; S - 16th; T - 32nd; X - 64th; a - acciaccatura
+ - note tied to previous; . - note dotted; .. - note double dotted
Uncapitalized letters represent notes that are staccato (1/2 duration)
Irregular groupings are notated above the duration line
Duration letters will always appear directly above the note/fret number it represents the
duration for.  Duration letters with no fret number below them represent rests.  Multi-
bar rests are notated in the form Wxn, where n is the number of bars to rest for.  Low
melody durations appear below the staff

Tablature Legend
----------------
 h   - hammer-on
 p   - pull-off
 b   - bend
 pb  - pre-bend
 r   - bend release (if no number after the r, then release immediately)
 /\  - slide into or out of (from/to "nowhere")
 s   - legato slide
 S   - shift slide
 - natural harmonic
[n]  - artificial harmonic
n(n) - tapped harmonic
 ~   - vibrato
 tr  - trill
 T   - tap
 TP  - trem. picking
 PM  - palm muting
\n/  - tremolo bar dip; n = amount to dip
 \n  - tremolo bar down
 n/  - tremolo bar up
/n\  - tremolo bar inverted dip
 =   - hold bend; also acts as connecting device for hammers/pulls
 <> - volume swell (louder/softer)
 x   - on rhythm slash represents muted slash
 o   - on rhythm slash represents single note slash

Misc Legend
-----------
 |  - bar
||  - double bar
||o - repeat start
o|| - repeat end
*|  - double bar (ending)
 :  - bar (freetime)
 $  - Segno
 &  - Coda
Tempo markers -  = BPM(8/16=s8/s16), where s8 = swing 8ths, s16 = swing 16ths
            
Submit corrections

comments powered by Disqus
↑ Back to top | Primus Bass for Amos Moses. Lyrics for acoustic guitar and electric guitar. 1 Tablatures and chords are parodies/interpretations of the original songs. You may use it for private study, scholarship, research or language learning purposes only