» » »

Priestess, Everything That You Are Tabs (ver.1)

Artists:  A B C D E F G H I J K L M N O P Q R S T U V W X Y Z # 

Everything That You Are Tabs (ver.1)

Priestess Tabs
 Rating:
3.4/5 (9 votes)
Everything That You Are lessons Tabs too difficult? Try these video lessons and learn fast
1
                
 Riff # 1

e|-------------------------------------------------|
B|-------------------------------------------------|
G|-----------------9/11------9--7-7-7-7-7-7-7-7-9--|
D|--9---9-9-9-9-9--9/11-9\7--9--7-7-7-7-7-7-7-7-9--|
A|--9---9-9-9-9-9--7/9--9\7--7--5-5-5-5-5-5-5-5-7--|
E|--7---7-7-7-7-7-------7\5------------------------|

Just play this by ramones-ing on the powerchords


Play four times


 Riff # 2
--------------|--|-------------------------------------|
--------------|--|-------------------------------------|
--------------|--|-------------------------------------|
--------------|x2|-------------------------------------|
--------------|--|-------------5-5-5-----5----4/7-9-9--|
--0--5h7--7---|--|--0--5h7--7--------5-5---5--2/5-7-7--|

 Repeat Riff # 1
-------------------------------------------------|
-------------------------------------------------|
-----------------9/11------9--7-7-7-7-7-7-7-7-9--|
--9---9-9-9-9-9--9/11-9\7--9--7-7-7-7-7-7-7-7-9--|
--9---9-9-9-9-9--7/9--9\7--7--5-5-5-5-5-5-5-5-7--|
--7---7-7-7-7-7-------7\5------------------------|

Again, play four times

 Riff # 3
-------------------------------------------|
-------------------------------------------|
-------------------------------------------|
--4-4--5-5--7-7--8-8--9-9-9-9-9-9-9-9-9-9--| x 2
--4-4--5-5--7-7--8-8--9-9-9-9-9-9-9-9-9-9--|
--2-2--3-3--5-5--6-6--7-7-7-7-7-7-7-7-7-7--|


--------------------|     |-------------|
--------------------|     |-------------|
--------------------|     |-------------|
--9-9-9-9-9-9-9-9---|x8 ->|-9-9-9--12---|
--9-9-9-9-9-9-9-9---|     |-9-9-9--12---|
--7-7-7-7-7-7-7-7---|     |-7-7-7--10---|


 Repeat Riff # 1
-------------------------------------------------|
-------------------------------------------------|
-----------------9/11------9--7-7-7-7-7-7-7-7-9--|
--9---9-9-9-9-9--9/11-9\7--9--7-7-7-7-7-7-7-7-9--|
--9---9-9-9-9-9--7/9--9\7--7--5-5-5-5-5-5-5-5-7--|
--7---7-7-7-7-7-------7\5------------------------|

And again, play four times


 Repeat Riff # 3

-------------------------------------------|
-------------------------------------------|
-------------------------------------------|
--4-4--5-5--7-7--8-8--9-9-9-9-9-9-9-9-9-9--| x 2
--4-4--5-5--7-7--8-8--9-9-9-9-9-9-9-9-9-9--|
--2-2--3-3--5-5--6-6--7-7-7-7-7-7-7-7-7-7--|


 Rythm during solo
-------------------------------------|
-------------------------------------|
---------------------------------9---|
--9--9-9-9-9-9-9-9-9-9-9-9-9-9-9-9---|
--9--9-9-9-9-9-9-9-9-9-9-9-9-9-9-7---|
--7--7-7-7-7-7-7-7-7-7-7-7-7-7-7-----|


-------------------------------------|
-------------------------------------|
--7-7-7-7-7-7-7-7-7-7-7-7-7-7-7-7-9--|
--7-7-7-7-7-7-7-7-7-7-7-7-7-7-7-7-9--|
--5-5-5-5-5-5-5-5-5-5-5-5-5-5-5-5-7--|
-------------------------------------|

 Solo ends here

-------------------------------------------|
-------------------------------------------|
-------------------------------------------|
--4-4--5-5--7-7--8-8--9-9-9-9-9-9-9-9-9-9--|
--4-4--5-5--7-7--8-8--9-9-9-9-9-9-9-9-9-9--|
--2-2--3-3--5-5--6-6--7-7-7-7-7-7-7-7-7-7--|

-------------------------------------------------|
-------------------------------------------------|
-----------------9/11------9--7-7-7-7-7-7-7-7-9--|
--9---9-9-9-9-9--9/11-9\7--9--7-7-7-7-7-7-7-7-9--|
--9---9-9-9-9-9--7/9--9\7--7--5-5-5-5-5-5-5-5-7--|
--7---7-7-7-7-7-------7\5------------------------|

You guessed it, four times

-------------------------------------------|
-------------------------------------------|
-------------------------------------------|
--4-4--5-5--7-7--8-8--9-9-9-9-9-9-9-9-9-9--|
--4-4--5-5--7-7--8-8--9-9-9-9-9-9-9-9-9-9--|
--2-2--3-3--5-5--6-6--7-7-7-7-7-7-7-7-7-7--|

Repeat until end of song
            
Submit corrections

comments powered by Disqus
↑ Back to top | Priestess Tabs for Everything That You Are. Lyrics for acoustic guitar and electric guitar. 1 Tablatures and chords are parodies/interpretations of the original songs. You may use it for private study, scholarship, research or language learning purposes only