» » »

Priestess, Everything That You Are Bass tabs (ver.1)

Artists:  A B C D E F G H I J K L M N O P Q R S T U V W X Y Z # 

Everything That You Are Bass tabs (ver.1)

Priestess Tabs
 Rating:
4/5 (7 votes)
Everything That You Are lessons Tabs too difficult? Try these video lessons and learn fast
                -------------------------------------------------------------------------------
EVERYTHING THAT YOU ARE- Priestess
-------------------------------------------------------------------------------


  Main Riff – X3
G|-----------------------------------------|
D|--------------3-5------------------------|
A|-3-3-3-3-3-3------------8--6-6-6-6--8----|
E|-------------------8-6-------------------|

  Pre Verse
G|---------------------------------------|
D|---------------------------------------|
A|-1-3-3---1-3-3--1-3-3--6----6----6-3---|
E|-------------------------6----6--------|

  Verse– X4
G|-----------------------------------------|
D|--------------3-5------------------------|
A|-3-3-3-3-3-3------------8--6-6-6-6--8----|
E|-------------------8-6-------------------|

  Chorus – X1
G|----------------------------------------------------------|
D|----------------------------------------------------------|
A|----------------------------------------------------------|
E|-3-4-6-7--8--8--8--8--8--8--8--8--8--8--8--8--3-4-6-7--8--|

   Break – Do This For A Long Time
G|---------------------------------------------------------------------------|
D|---------------------------------------------------------------------------|
A|---------------------------------------------------------------------------|
E|--8--8--8--8--8--8--8--8--8--8--8--8--8--8--8--8--8--8--8--8--8--8--8--8-6-|

  Verse– X4
G|-----------------------------------------|
D|--------------3-5------------------------|
A|-3-3-3-3-3-3------------8--6-6-6-6--8----|
E|-------------------8-6-------------------|

Chorus – X1
G|----------------------------------------------------------|
D|----------------------------------------------------------|
A|----------------------------------------------------------|
E|-3-4-6-7--8--8--8--8--8--8--8--8--8--8--8--8--3-4-6-7--8--|

  With Solo – X4
G|----------------------------------------------------------------------------|
D|----------------------------------------------------------------------------|
A|----------------------------------------------6-6-6-6-6-6-6-6-6-6-6-6-6-6-6-|
E|--8--8--8--8--8--8--8--8--8--8--8--8--8--8--8-------------------------------|

G|-----------|
D|-----------|
A|-----------|
E|-3-4-6-7---|

Main Riff – X3
G|-----------------------------------------|
D|--------------3-5------------------------|
A|-3-3-3-3-3-3------------8--6-6-6-6--8----|
E|-------------------8-6-------------------|

Verse– X4
G|-----------------------------------------|
D|--------------3-5------------------------|
A|-3-3-3-3-3-3------------8--6-6-6-6--8----|
E|-------------------8-6-------------------|

Chorus – X7 – A Little Different At The End
G|----------------------------------------------------------|
D|----------------------------------------------------------|
A|----------------------------------------------------------|
E|-3-4-6-7--8--8--8--8--8--8--8--8--8--8--8--8--3-4-6-7--8--|

===============================================================================
            
Submit corrections

comments powered by Disqus
↑ Back to top | Priestess Bass for Everything That You Are. Lyrics for acoustic guitar and electric guitar. Tablatures and chords are parodies/interpretations of the original songs. You may use it for private study, scholarship, research or language learning purposes only